Audioslave - Worm Chords & Tabs

 

Worm Chords & Tabs

Audioslave Chords & Tabs

Version: 3 Type: Tab 0 ratings
1 star 2 stars 3 stars 4 stars 5 stars
comments

Worm Tab

Artist: Audioslave
Song: The Worm
Album: Out OF Exile

Tabbed by: Loki

Intro:

play all twice

e|-----------------------------------------|
B|-----------------------------------------|
G|--2-4---------------------7-6------------| 
D|--2-4-----7-9-9-7-9-9-7-9-----9-7--------|
A|--0-2------------------------------------|
B|-----------------------------------------|

e|-----------------------------------------|
B|-----------------------------------------|
G|--2-4---------------------7-6------------| 
D|--2-4-----7-9-9-7-9-9-7-9-----9----------|
A|--0-2------------------------------------|
B|-----------------------------------------|

e|-----------------------------------------|
B|-----------------------------------------|
G|--2-4---------------------7-6------------| 
D|--2-4-----7-9-9-7-9-9-7-9-----9-7--------|
A|--0-2------------------------------------|
B|-----------------------------------------|

e|-----------------------------------------|
B|-----------------------------------------|
G|--2-4---------------------7-6-7----------| 
D|--2-4-----7-9-9-7-9-9-7-9----------------|
A|--0-2------------------------------------|
B|-----------------------------------------|

Vesrse:

play 3 times:
[ Tab from: http://www.guitartabs.cc/tabs/a/audioslave/worm_tab_ver_3.html ]
e|----------------------------------------------------------------|
B|----------------------------------------------------------------|
G|--4-------------------------------------------------------------| 
D|--4------------------0-2----------------------------------------|
A|--2------2-0-2-2-0/2--------------------------------------------|
B|--------------------------7-5-7-7-5/7-5-3--5-3-5-5-3/5-3-0------|


chorus:

play 3 times:

e|-----------------------------------------|
B|-----------------------------------------|
G|-----------------------------------------| 
D|-----------------------------------------|
A|-----------------------------------------|
B|--7-10--5-3-0-5-3-0----------------------|

than:

e|-----------------------------------------|
B|-----------------------------------------|
G|-----------------------------------------| 
D|-----------------------------------------|
A|-----------------------------------------|
B|--12-10--5-3-0-5-3-0---------------------|


part after solo:

play 3 times:

e|-----------------------------------------------|
B|-----------------------------------------------|
G|-----------------------------------------------| 
D|--9-12-12-9-12-12-9-12-12-9-12-12-9-12-12-9----|
A|-----------------------------------------------|
B|-----------------------------------------------|

than:

e|-----------------------------------------------|
B|-----------------------------------------------|
G|-----------------------------------------------| 
D|--9-12-12-9-12-12-9-12-12-9-12-12-9-12-12-11---|
A|-----------------------------------------------|
B|-----------------------------------------------|

enjoy:)
Comments