Audioslave - Worm Chords & Tabs

 

Worm Chords & Tabs

Audioslave Chords & Tabs

Version: 1 Type: Tab 0 ratings
1 star 2 stars 3 stars 4 stars 5 stars
comments

Worm Tab

Awesome Intro
to the worm
E|------------------------------------------|
B|------------------------------------------|
G|------------------------------------------|
D|--------7-9-9-7-9-9-7-9-9-7-9-9-12-11-9-7-|
A|------------------------------------------|
E|---7-9------------------------------------|


-----------------------------------------|
-----------------------------------------|
-----------------------------------------|
--------7-9-9-7-9-9-7-9-9-7-9-9-12-11-9~-|
-----------------------------------------|
---7-9-----------------------------------|
[ Tab from: http://www.guitartabs.cc/tabs/a/audioslave/worm_tab.html ]
------------------------------------------|
------------------------------------------|
------------------------------------------|
--------7-9-9-7-9-9-7-9-9-7-9-9-12-11-9-7-|
------------------------------------------|
---7-9------------------------------------|

-----------------------------------------       You Play all of this--| 2x
----------------------------------------------------------------------|
----------------------------------------------------------------------|
--------7-9-9-7-9-9-7-9-9-7-9-9-12-11-12~-----------------------------|
----------------------------------------------------------------------|
---7-9----------------------------------------------------------------|
Thats it.
Comments