Audioslave - Worm Chords & Tabs

 

Worm Chords & Tabs

Audioslave Chords & Tabs

Version: 2 Type: Bass Tab

Worm Bass Tab

Title: The Worm
Artist: Audioslave
Tuning: BEAD
Tabbed by: Bassplayer275

 Intro:		  Verse:
D|------|--------||---|--------------------------|
A|------|--------||---|---------------5-----5--7-|
E|-5--7-|-x-5--7-||---|------7--5--7-----7-------|
B|------|--------||-0-|--------------------------|

D|-----------------------------------------|---|
A|-----------------------------------------|---|
E|----5------------------------------------|---|
B|-7-----7--5--7--5--3----7--5--7--0--3--5-|-0-|

 Chorus:
D|------------------------|-------------------------|
A|------------------------|-------------------------|
E|------------------------|-------------------------|
B|-7---10---5-3-0---5-3-0-|-12---10---5-3-0---5-3-0-|
[ Tab from: http://www.guitartabs.cc/tabs/a/audioslave/worm_btab_ver_2.html ]
 Solo:
D|-------------------------|--------------------------|
A|-------------------------|--------------------------|
E|-------------------------|--------------------------|
B|-12---10---5-3-0---5-3-0-|-7---10---5-3-0-5-3-0-5-3-|

 Interlude:
D|----------------|----------------|7777777777777777|--------------------|
A|----------------|9999999999999999|----------------|77777777------------|
E|7777777777777777|----------------|----------------|--------101010109999|
B|----------------|----------------|----------------|--------------------|

D|----------------|----------------|7777777777777777|14141414141414141212121211111111|
A|----------------|9999999999999999|----------------|--------------------------------|
E|7777777777777777|----------------|----------------|--------------------------------|
B|----------------|----------------|----------------|--------------------------------|

D|-----------||-------------------------|
A|-----------||-------------------------|
E|-5--7------||-------------------------|
B|--------0--||-12---10---5-3-0---5-3-0-|