Audioslave - What You Are Chords & Tabs

 

What You Are Chords & Tabs

Audioslave Chords & Tabs

Version: 5 Type: Tab 0 ratings
1 star 2 stars 3 stars 4 stars 5 stars
comments

What You Are Tab

Artist: Audioslave
Song: "What You Are"
Album: Audioslave

Ok, this song is in Drop B. This is the only song I have ever seen in Drop B,
so get your tuner out for a second and try this song out, it is really great.
This IS the best song on the CD. Here are the tabs:

Intro:
e|-------------------------------------------------------------------|
B|-------------------------------------------------------------------|
G|-------------------------------------------------------------------|
D|---4---4---4------2---2---2----0---0---0----2---2---2--------------|
A|-2---2---2------2---2---2----2---2---2----4---4---4----0-----------|
B|-------------------------------------------------------------------|
  (when you wanted me I came to you)
[ Tab from: http://www.guitartabs.cc/tabs/a/audioslave/what_you_are_tab_ver_5.html ]
Chorus:
e|-----------------------------------------|
B|-----------------------------------------|
G|-----------------------------------------|
D|4-4-4-4---------------7-6-4-4-4----------|
A|2-2-2-2----9-9-9-9----7-7-5-5-5----------|
B|0-0-0-0----7-7-7-7----5-5-3-3-3----------|
  Now I'm free...


End chorus on:
e|---------------------------------------------------------------------------|
B|---------------------------------------------------------------------------|
G|---------------------------------------------------------------------------|
D|---------------------------------------------------------------------------|
A|---7-7-8-7--6-5-2----------------------------------------------------------|
B|---9-9-6-5--4-3-0----------------------------------------------------------|


Thats the heart of the song and the only parts I can tab. Sorry.

If you got questions, email me at "incubusdude17@hotmail.com"
Comments