Audioslave - What You Are Chords & Tabs

 

What You Are Chords & Tabs

Audioslave Chords & Tabs

Version: 4 Type: Tab 0 ratings
1 star 2 stars 3 stars 4 stars 5 stars
comments

What You Are Tab

   
by:josh
band:Audioslave
album:Audioslave
song:What You Are
tuning:1 and a half steps down with drop d   (B,F#,B,E,G#,C#)
date:December 5, 2002

key
^ = move wah quick to make the woah sound
* = move the whammy bar really fast up and down to make the shaky sound
\ = slide
i just realized this song is in drop b so here it is..

intro/verse : clean
C#-----------------------------------------------------------------------
G#-----------------------------------------------------------------------
E------------------------------------------------------------------------
B-----7---7---7---7---5---5---5---5---3---3---3---3-----5---5---5---5----
F#--5---5---5---5---5---5---5---5---5---5---5---5---5-3---3---3---3------
B---------------------------------------------------------------------5--

chorus : heavy distortion
C#-----------------------
G#-----------------------
E---7-7-7--5-5-5-10-\-9--
B---7-7-7--5-5-5-10-\-9--
F#--5-5-5--3-3-3--8-\-7--
B------------------------

postchorus : heavy distortion
C#----------------------------------
G#----------------------------------
E---7-7-7-7-7-7-10-\-7-\-5-\-7-\-5--
B---7-7-7-7-7-7-10-\-7-\-5-\-7-\-5--
F#--5-5-5-5-5-5--8-\-5-\-3-\-5-\-3--
B-----------------------------------
[ Tab from: http://www.guitartabs.cc/tabs/a/audioslave/what_you_are_tab_ver_4.html ]
solo : ok here the deal on the solo you need a wah wah pedal, 
a whammy pedal, and a whammy bar on your guitar.....and the parts right 
after the low B notes he says he just plucks the strings behind the nut 
form top to bottom but since most people down have a pickup behind the 
nut just play it like this..on the whammy bar part hit the whammy pedal

C#-----------------------------------------------------------------
G#-----------------------------------------------------------------
E-----7-5-7-10-7-5-7----7-5-7-10-7-5----7-5-7-10-7-5-7-7*7*7*7*7*--
B------------------------------------------------------------------
F#-----------------------------------------------------5*5*5*5*5*--
B--0^----------------0^--------------0^----------------------------

breakdown : clean and played light
C#---------------------------
G#---------------------------
E----------------------------
B---7-7-7-5-5-5-3-3-3-5-5-5--
F#--5-5-5-5-5-5-5-5-5-3-3-3--
B----------------------------

outro : heavy distortion
C#--------------------------------------
G#--------------------------------------
E---7-7-7-7-7-7-10-\-7-\-5-\-7-\-5-\-7--
B---7-7-7-7-7-7-10-\-7-\-5-\-7-\-5-\-7--
F#--5-5-5-5-5-5--8-\-5-\-3-\-5-\-3-\-5--
B---------------------------------------

order:
intro/verse 6x
chorus 3x
postchorus 1x
intor/verse 6x
chorus 3x
postchorus 1x
solo 2x
breakdown 4x
chorus 3x
postchorus 1x
chorus 3x
outro 1x
Comments