Audioslave - What You Are Chords & Tabs

 

What You Are Chords & Tabs

Audioslave Chords & Tabs

Version: 2 Type: Tab 0 ratings
1 star 2 stars 3 stars 4 stars 5 stars
comments

What You Are Tab

Audioslave - What you are
Drop D tuning
Tabbed By Know your enemy
E-Mail: Muthafocker@yahoo.co.uk

Play Main Riff with wah at start

Main Riff:
E:--------------------------------------------------------
B:--------------------------------------------------------
G:----------------------------------------------------5---
D:----------------------------------------------------5---
A:--3-5-3---------------3-5-3---3-5-3---------------x-3---
D:--------0-3--5--0-3-0-------0-------0-3--5--0-3-0-x----- REPEAT

Sorry i dont really care for figurin' out the verse cause it's
mostly the bass that hold's it. Just Play a Chord (whatever fits)
and hold it.
[ Tab from: http://www.guitartabs.cc/tabs/a/audioslave/what_you_are_tab_ver_2.html ]
Main Riff (Chorus)
This riff is slightly different than above.
E:--------------------------------------------------------
B:--------------------------------------------------------
G:--------------------------------------------------------
D:--------------------------------------------------------
A:--3-5-3-------------------------------------------x-0---
D:--------0-3--5--0-3-0-6-5-3-5-3-0---0-3--5--0-3-0-x-0--- REPEAT

Solo.....Cant play (Surprise, Surprise)
The backin (I.e. The bass) is just thr main riff Up to frets,
Then back to normal for the second half.

Build up part before last Chorus: 
(Some Strange effect with lots of flange)
E:-------------------------------
B:-------------------------------
G:-------------------------------
D:-------------------------------
A:--3-5-3---------------3-5-3----
D:--------0-3--5--0-3-0-------0-- REPEAT

Final Chorus:
E:--------------------------------------------------------
B:--------------------------------------------------------
G:----------------------------------------------------5---
D:----------------------------------------------------5---
A:--3-5-3-------------------------------------------x-3---
D:--------0-3--5--0-3-0-6-5-3-5-3-0---0-3--5--0-3-0-x----- REPEAT

Feel free to critisize whatever it is you see that not satisfactory about this tab.
Im doin this in college from the top of my head while listenin to the song on minidisc so 
There may be some slight mistakes.
E-Mail: Muthafocker@yahoo.co.uk

Comments