Audioslave - What You Are Chords & Tabs

 

What You Are Chords & Tabs

Audioslave Chords & Tabs

Version: 1 Type: Tab 0 ratings
1 star 2 stars 3 stars 4 stars 5 stars
comments

What You Are Tab

   
Song: What You Are
Band: Audioslave
Album: Audioslave
Composer: Tom Morello
Lyrics: Chris Cornell
Tab Author: R. Cazares (cattlehead@hotmail.com) claims this work.

Tuning (low to high):

B A D G B E


Key:

/= slide up
\=slide down
B= bend
r= release
h= hammer on
p= pull off
x= mute string
n= pick above nut


Verse:


E ------------------|------------------
B ------------------|------------------
G ------------------|------------------
D ---4---4-----4----|---2---2-----2----
A -2---2-----2---2--|-2---2-----2---2--
B-------------------|------------------


E ------------------|------------------
B ------------------|------------------
G ------------------|------------------
D ---0---0-----0----|---2---2-----2----
A -2---2-----2---2--|-4---4-----4---0--
B ------------------|------------------

Pre-Chorus

E ------------------|------------------
B ------------------|------------------
G ------------------|------------------
D ---4---4-----4----|---2---2-----2----
A -2---2-----2---2--|-2---2-----2---2--
B-------------------|------------------


E ------------------|------------------
B ------------------|------------------
G ------------------|------------------
D ---5---5-----5----|---4---4----------
A -5---5-----5---5--|-4---4------------
B ------------------|------------------

then crazy noise.

Chorus
[ Tab from: http://www.guitartabs.cc/tabs/a/audioslave/what_you_are_tab.html ]
E ------------------|------------------
B ------------------|------------------
G ------------------|------------------
D -4-4-4-4----------|-7-6-x--4-4-4-4-4-   x 3
A -2-2-2-2--9-9-9-9-|-7-7-x--5-5-5-5-5- 
B -0-0-0-0--7-7-7-7-|-5-5-x--3-3-3-3-3-

E ------------------|---------------|----
B ------------------|---------------|----
G ------------------|---------------|----
D ------------------|---------------|----
A -9-9-9-9-9-9-9-9--|-9-9-8-7--5--4-|-2--
B -7-7-7-7-7-7-7-7--|-7-7-6-5--3--2-|-0--

Note: the above left measure is repeated
late in the song. The song then jumps to
the beginning of the chorus.

Solo:

From Guitar World Magazine, December 2002

GUITAR WORLD: The solo for "What You Are" is cool.
There's a filtered wah sound that alternates
with some kind of pitch bend sound.

TOM MORELLO: That's all one performance, with
a wah-wah pedal. It's three parts.
The initial "waooh" is a low B and it's followed
by hitting all the string above the nut, which
makes sort of a high-end sound. Then the third
part is with the whammy pedal set to a fifth,
and I'm just manipulating the whammy bar on
the guitar to play that little shaky melody.
Then, at the end of each of the phrases,
that's just toggling while making the bar go
through the sweep of the pedal. It sounds much
more complicated than it is.

--
Whatever, Tom!

Structure:

Verse x 5

Pre-chorus

Chorus

Verse x 3

Pre-chorus

Chorus

Solo

Rest

Varied Chorus (noted above)

The end.
Comments