Audioslave - What You Are Chords & Tabs

 

What You Are Chords & Tabs

Audioslave Chords & Tabs

Version: 2 Type: Bass Tab 0 ratings
1 star 2 stars 3 stars 4 stars 5 stars
comments

What You Are Bass Tab

Band - Audioslave
Song - What You Are

Intro:
G|------------------------------|
D|------------------------------|
A|----------5--4----------5--4--|
E|--5-7--0--------5-7--0--------|

Verse:
G|---------------------------------------------------------------------------|
D|--------------------------------------------------------7-7-7-7-7-7-7-7----|
A|-----------------------7-7-7-7-7-7-7-7-5-5-5-5-5-5-5-5---------------------|
E|----5-7-7-7-7-7-7-7-7------------------------------------------------------|

Pre-Chorus:
G|---------------------------------------------------------------------------|
D|--9-9-9-9-9-9-9-9-9-9-9-9-9-9-9-9------------------------------------------|
A|----------------------------------10-10-10-10-10-10-10-10-9-9-9-9-9-9-9-9--|
E|---------------------------------------------------------------------------|

Chorus:
G|---------------------------------------------------------------------------|
D|---------------------------------------------------------------------------|
A|-----------------------------5-5-5-5----------------------------5-5-5-5----|
E|----7-7-7-7-2-2-2-2--0-0------------------7-7-7-7-2-2-2-2--0-0-------------|

G|---------------------------------------------------------------------------|
D|---------------------------------------------------------------------------|
A|----------------------------5-5-5-5------9-9-9-9-9-9-9-9--9-9--8-7--5-4----|
E|----7-7-7-7-2-2-2-2--0-0---------------------------------------------------|

Verse:
G|---------------------------------------------------------------------------|
D|---------------------------------------------------------------------------|
A|----2-2-2-2-2-2-2-2---------------------5-5-5-5-5-5-5-5-4-4-4-4-4-4-4-4----|
E|----------------------0-0-0-0-0-0-0----------------------------------------|

G|---------------------------------------------------------------------------|
D|---------------------------------------------------------------------------|
A|--------------------------------------5-5-5-5-5-5-5-5----4-4-4-4-4-4-4-4---|
E|---5-7-7-7-7-7-7-7-7-0-0-0-0-0-0-0-0---------------------------------------|

G|---------------------------------------------------------------------------|
D|----------------------------------------------------------7-7-7-7-7-7-7-7--|
A|------------------------7-7-7-7-7-7-7-7-5-5-5-5-5-5-5-5--------------------|
E|----5-7-7-7-7-7-7-7-7------------------------------------------------------|
[ Tab from: http://www.guitartabs.cc/tabs/a/audioslave/what_you_are_btab_ver_2.html ]
Pre-Chorus:
G|---------------------------------------------------------------------------|
D|--9-9-9-9-9-9-9-9-9-9-9-9-9-9-9-9------------------------------------------|
A|----------------------------------10-10-10-10-10-10-10-10-9-9-9-9-9-9-9-9--|
E|---------------------------------------------------------------------------|

Chorus:
G|---------------------------------------------------------------------------|
D|---------------------------------------------------------------------------|
A|-----------------------------5-5-5-5----------------------------5-5-5-5----|
E|----7-7-7-7-2-2-2-2--0-0------------------7-7-7-7-2-2-2-2--0-0-------------|

G|---------------------------------------------------------------------------|
D|---------------------------------------------------------------------------|
A|----------------------------5-5-5-5------9-9-9-9-9-9-9-9--9-9--8-7--5-4----|
E|----7-7-7-7-2-2-2-2--0-0---------------------------------------------------|

Interlude:
G|---------------------------------------------------------------------7-----|
D|------------------------------------------------------------9--7-979-------|
A|-----------------5---------------5-----------------5-----------------------|
E|------7-7--5-757---5--7-7--5-757---7-5--7-7--5-757---5--7-7----------------|

G|---------------------------------------------------------------------7-----|
D|------------------------------------------------------------9--7-979-------|
A|-----------------5---------------5-----------------5-----------------------|
E|------7-7--5-757---5--7-7--5-757---7-5--7-7--5-757---5--7-7----------------|

Chorus/Outro:
G|---------------------------------------------------------------------------|
D|---------------------------------------------------------------------------|
A|----------------------------5-5-5-5-----------------------------5-5-5-5----|
E|----7-7-7-7-2-2-2-2--0-0---------------7-7-7-7-2-2-2-2--0-0----------------|

G|---------------------------------------------------------------------------|
D|---------------------------------------------------------------------------|
A|----------------------------5-5-5-5----9-9-9-9-9-9-9-9-9-9-9-9-9-9-9-9-----|
E|----7-7-7-7-2-2-2-2--0-0---------------------------------------------------|

G|---------------------------------------------------------------------------|
D|---------------------------------------------------------------------------|
A|----------------------------5-5-5-5-----------------------------5-5-5-5----|
E|----7-7-7-7-2-2-2-2--0-0---------------7-7-7-7-2-2-2-2--0-0----------------|

G|---------------------------------------------------------------------------|
D|---------------------------------------------------------------------------|
A|-----------------------------5-5-5-5---9-9-9-9-9-9-9-9--9-9--8-7--5-4--2---|
E|-----7-7-7-7-2-2-2-2--0-0--------------------------------------------------|
Comments