Audioslave - We Got The Whip Chords & Tabs

 

We Got The Whip Chords & Tabs

Audioslave Chords & Tabs

Version: 1 Type: Tab 0 ratings
1 star 2 stars 3 stars 4 stars 5 stars
comments

We Got The Whip Tab

   
Band- Audioslave
Song- We Got The Whip

Tuning
DADGBe

Intro/Chorus
e|----------------------------------------------------|
B|----------------------------------------------------|
G|----------------------------------------------------|
D|---------------3---5--------------------------------|
A|------3-5-xxxx---5---5-3-5------3-0-3-0-------------|
D|-0-xx----------------------0-xx---------5-3-5-3-0-3-|

e|----------------------------------------------------|
B|----------------------------------------------------|
G|----------------------------------------------------|
D|---------------3---5--------------------------------|
A|------3-5-xxxx---5---5-3-5-------3--0--3-----3------|
D|-0-xx----------------------0-xx-----------5-----3---| x2

Verse
e|----------------------------------|
B|----------------------------------|
G|-------5-x------------------------|
D|-7-7-x-3-x-7-7-7-xx-5-5---3-5-----|
A|-5-5-x-----5-5-5-xx-3-3-5-----3-5-|
D|----------------------------------| x3

Pre-Chorus
e|---------8-88-------------|
B|---------8-88-------------|
G|---------6-66-------------|
D|--------------------------|
A|-7s0-xxx------xx-3-5-7-10-|
D|-7s0-xxx------xx-3-5-7-10-| x1

Chorus
e|----------------------------------------------------|
B|----------------------------------------------------|
G|----------------------------------------------------|
D|---------------3---5--------------------------------|
A|------3-5-xxxx---5---5-3-5------3-0-3-0-------------|
D|-0-xx----------------------0-xx---------5-3-5-3-0-3-|

e|----------------------------------------------------|
B|----------------------------------------------------|
G|----------------------------------------------------|
D|---------------3---5--------------------------------|
A|------3-5-xxxx---5---5-3-5------3--0--3-----3-------|
D|-0-xx----------------------0-xx----------5-----3----| x2

Verse
e|----------------------------------|
B|----------------------------------|
G|-------5-x------------------------|
D|-7-7-x-3-x-7-7-7-xx-5-5---3-5-----|
A|-5-5-x-----5-5-5-xx-3-3-5-----3-5-|
D|----------------------------------| x6

Pre-Chorus
e|---------8-88-------------|
B|---------8-88-------------|
G|---------6-66-------------|
D|--------------------------|
A|-7s0-xxx------xx-3-5-7-10-|
D|-7s0-xxx------xx-3-5-7-10-| x1

Chorus
e|----------------------------------------------------|
B|----------------------------------------------------|
G|----------------------------------------------------|
D|---------------3---5--------------------------------|
A|------3-5-xxxx---5---5-3-5------3-0-3-0-------------|
D|-0-xx----------------------0-xx---------5-3-5-3-0-3-|
[ Tab from: http://www.guitartabs.cc/tabs/a/audioslave/we_got_the_whip_tab.html ]
e|----------------------------------------------------|
B|----------------------------------------------------|
G|----------------------------------------------------|
D|---------------3---5--------------------------------|
A|------3-5-xxxx---5---5-3-5------3--0--3-----3-------|
D|-0-xx----------------------0-xx----------5-----3----| x2

Solo
e|---5-------5---5-------5---5-------5---5---5---5---5-|
B|-8---8-8-8---7---7-7-7---6---6-6-6---7---7---8---8---|
G|-----------------------------------------------------|
D|-----------------------------------------------------|
A|-----------------------------------------------------|
D|-----------------------------------------------------|


e|---5-------5---5-------5---5-------5---5---5---5---5-|
B|-8---8-8-8---7---7-7-7---6---6-6-6---7---7---8---8---|
G|-----------------------------------------------------|
D|-----------------------------------------------------|
A|-----------------------------------------------------|
D|-----------------------------------------------------|

e|------------10^11-10-8------------10^11-10-8-----------------------------------------|
B|-10^11-10-8------------10^11-10-8------------10^11-10-10-8^9-8-8---------------------|
G|-----------------------------------------------------------------11-11-11-11-7-7-7-7-|
D|-------------------------------------------------------------------------------------|
A|-------------------------------------------------------------------------------------|
D|-------------------------------------------------------------------------------------|

e|-20-17--15-12--------------------------------15^-15^-15^-15^-15^-15^-15^-|
B|--------------16-15-13-15-16^-15-13----13-15-13^-13^-13^-13^-13^-13^-13^-|
G|------------------------------------14-----------------------------------|
D|-------------------------------------------------------------------------|
A|-------------------------------------------------------------------------|
D|-------------------------------------------------------------------------|

Verse
e|----------------------------------|
B|----------------------------------|
G|-------5-x------------------------|
D|-7-7-x-3-x-7-7-7-xx-5-5---3-5-----|
A|-5-5-x-----5-5-5-xx-3-3-5-----3-5-|
D|----------------------------------| x2

Pre-Chorus
e|----------------------------|
B|----------------------------|
G|-------5-x------------------|
D|-7-7-x-3-x-7-7-7-xx---------|
A|-5-5-x-----5-5-5-xx-3-5-7-9-|
D|--------------------3-5-7-9-| x1

C
Outro/Chorus
e|----------------------------------------------------|
B|----------------------------------------------------|
G|----------------------------------------------------|
D|---------------3---5--------------------------------|
A|------3-5-xxxx---5---5-3-5------3--0--3-----3-------|
D|-0-xx----------------------0-xx----------5-----3----| x4

End
e|-----------|
B|-----------|
G|-10--10-s--|
D|-10--10-s--|
A|-8---8--s--|
D|-x---x--s--| x1

Intro/Chorus x2
Verse x3
Pre-Chorus x1
Chorus x2
Verse x6
Pre-Chorus x1
Chorus x2
Solo
Verse x2
Pre-Chorus x1
Outro/Chorus x4
End x1
Comments