Audioslave - The Last Remaining Light Chords & Tabs

 

The Last Remaining Light Chords & Tabs

Audioslave Chords & Tabs

Version: 3 Type: Tab 0 ratings
1 star 2 stars 3 stars 4 stars 5 stars
comments

The Last Remaining Light Tab

i found a solo for this song and it was somewhat right so i decided to do it of my own.
is my first tab and i think it was correct, but if not correct give me an e mail and
me that i screwd up.

solo one
E|---------------------------------------------------------------------------|
B|---------------------------------------------------------------------------|
G|---------------------------------------------------------------------------|
D|---------------------------------------------------------------------------|
A|----------------------------8-7--8/10-8-7--7h8-7--7-8---xx--8-7------------|
E|-10-12-13-12-12h-13-12-9h10---------------------------8-xx------8-8/12-13b-|
[ Tab from: http://www.guitartabs.cc/tabs/a/audioslave/the_last_remaining_light_tab_ver_3.html ]
solo part 2
E|---------------------------------------------------------------|
B|------------------------6---6----6-8-----------------6---------|
G|-7--9-7---------7vvv--7---7----7-------14-12--14-12----7-------|
D|--------10-7-10------------------------------------------------|
A|---------------------------------------------------------------|
E|---------------------------------------------------------------|

E|--12-----------------------------------------------------------|
B|-----13-10---9------------10-9---------10-9--------------------|
G|---------------12-10-12--------12-12--------12-10-9----9b------|
D|-----------------------------------------------------7---------|
A|---------------------------------------------------------------|
E|---------------------------------------------------------------|

E|--------------------5-------------------------------------------|
B|-------------------5--------------------------------------------|
G|-5-7-5------------5---------------------------------------------|
D|-------7--5-----5-----------------------------------------------|
A|------------5-5-------------------------------------------------|
E|----------------------------------------------------------------|

thats all have fun!
Comments