Audioslave - The Last Remaining Light Chords & Tabs

 

The Last Remaining Light Chords & Tabs

Audioslave Chords & Tabs

Version: 1 Type: Tab 1 rating
1 star 2 stars 3 stars 4 stars 5 stars
comments

The Last Remaining Light Tab

   
Artist: Audioslave
Album : Audioslave
Song  : The Last Remaining Light
Tabber: Daniel F. Schmidt

Hate mails, love mails (girls only, please) can be send to my e-mail: D_Dalle@hotmail.com.

The tuning is standard (E,A,D,G,B,E.)

/\ = Slide up/down
h = Hammer-on
~ = Vibrato or let ring
b = Bend string
x = Mute string




  INTRO
e|----------------------------|
B|--6-----5-----8-----5-------|
G|----7-----7-----7-----7-----|
D|----------------------------| x2
A|----------------------------|
E|----------------------------|




  VERSE
e|---------------------------------------------------------------|
B|--6-----8-----8-----6---------6-----8-----8-----6--------------|
G|----7-----9-----9-----7---------7-----9-----9-----7------------|
D|---------------------------------------------------------------|
A|---------------------------------------------------------------|
E|---------------------------------------------------------------|

e|---------------------------------------------------------------|
B|--6-----8-----8-----6---------6-----5-----8-----6~~------------|
G|----7-----9-----9-----7---------7-----7-----7------------------|
D|---------------------------------------------------------------|
A|---------------------------------------------------------------|
E|---------------------------------------------------------------|

e|---------------------------------------------------------------|
B|--6-----5-----8-----5------------------------------------------|
G|----7-----7-----7-----7----------------------------------------|
D|---------------------------------------------------------------|
A|---------------------------------------------------------------|
E|---------------------------------------------------------------|

e|---------------------------------------------------------------|
B|--6-----8-----8-----6---------6-----8-----8-----6--------------|
G|----7-----9-----9-----7---------7-----9-----9-----7------------|
D|---------------------------------------------------------------|
A|---------------------------------------------------------------|
E|---------------------------------------------------------------|

e|---------------------------------------------------------------|
B|--6---6---6----8---8---8----8---8---8----6---6---6-------------|
G|----7---7--7-----9---9--9-----9---9--9-----7---7--7------------|
D|---------------------------------------------------------------|
A|---------------------------------------------------------------|
E|---------------------------------------------------------------|

e|---------------------------------------------------------------|
B|--6---6---6----5---5---5----8---8---8----6~~-------------------|
G|----7---7--7-----7---7--7-----9---9--9-------------------------|
D|---------------------------------------------------------------|
A|---------------------------------------------------------------|
E|---------------------------------------------------------------|



[ Tab from: http://www.guitartabs.cc/tabs/a/audioslave/the_last_remaining_light_tab.html ]
  CHORUS
e|--------0--------------3--------------7--------------7---------|
B|------1----1---------0----0---------7----7---------7----7------|
G|----2--------2-----0--------0-----7--------7-----7--------7----|
D|--3------------3-2------------2-9------------9-5------------5--| x3
A|---------------------------------------------------------------|
E|---------------------------------------------------------------|




  SOLO 1
e|---------------------------------------------------------------|
B|---------------------------------------------------------------|
G|---------------------------------------------------------------|
D|-------------------------2-3/5-3-2----2h3-2-2~--2h3-2----------|
A|--5--7-8--7h8-7--3---3h5-------------------------------3~------|
E|---------------------------------------------------------------|

e|---------------------------------------------------------------|
B|---------------------------------------------------------------|
G|---------------------------------------------------------------|
D|--x-x--3-2-----------------------------------------------------|
A|--x-x------3-3/7-78b-------------------------------------------|
E|--x-x----------------------------------------------------------|




  VERSE AGAIN




  CHORUS AGAIN (The only change is the ending. This is what comes after 
  the chorus has been repeatet three times.)
e|--------7---------7----------|
B|------7----7--------7--------|
G|----7--------7--------7------|
D|--9------------9--------9----|
A|-----------------------------|
E|-----------------------------|




  SOLO 2
e|---------------------------------------------------------------|
B|----6---------------------6---6-----6-8--10-8~---10-8~---6-----|
G|--7---7-5-----5-7-------7---7-----7------------------------7\--|
D|------------7--------------------------------------------------|
A|---------------------------------------------------------------|
E|---------------------------------------------------------------|

e|--12-----------------------------------------------------------|
B|-----13-10---9------------10-9---------10-9--------------------|
G|---------------12-10-12--------12-12--------12-10-9----9b------|
D|-----------------------------------------------------7---------|
A|---------------------------------------------------------------|
E|---------------------------------------------------------------|

e|-------------------------------5-10-------------------------|
B|-----------------------------6------------------------------|
G|---------------------------7--------------------------------|
D|--10-12---10-7----5------7----------------------------------|
A|--------------------5\/5------------------------------------|
E|------------------------------------------------------------|



  CHORUS AGAIN (The only change here is the ending. 
  After you've repeatet the chorus three times, end with this.)
e|--------7--------------7--------------7--------------7---------|
B|------7----7---------7----7---------7----7---------7----7------|
G|----7--------7-----7--------7-----7--------7-----7--------7----|
D|--9------------9-5------------5-9------------9-5------------5--|
A|---------------------------------------------------------------|
E|---------------------------------------------------------------|

e|--------7--------------7--------------7------------------------|
B|------7----7---------7----7---------7----7---------------------|
G|----7--------7-----7--------7-----7--------7-------------------|
D|--9------------9-5------------5-9------------------------------|
A|---------------------------------------------------------------|
E|---------------------------------------------------------------|


Here it is. All I have left to is: ENJOY!
Comments