Audioslave - Show Me How To Live Chords & Tabs

 

Show Me How To Live Tab

Artist: Audioslave tabs Version: 5 Type: Tab 4 ratings
1 star 2 stars 3 stars 4 stars 5 stars
5 comments

We are not in a position to display this tab due to licensing.

Sorry for the inconvinience

Comments

xmalpine said June 26, 2006 at 16:29

how about showing somebody the right way to play this asshole

xmalpn said June 17, 2006 at 19:07

intro
e|-----------------------|
b|-----------------------|
g|-----------------------|
d|----2-2-0-2-2-0-2--7/8-7--2-2--2-5-0-0------2-2-0-2-2-0-2-|
a|---2--2-0-2-2-0-2--7/8-7--0-2--2-5-0-0-----2--2-0-2-2-0-2-|
E|0-2---2-0-2-2-0-2--7/8-7----2--2-5-0-0--0-2---2-0-2-2-0-2-|

xmalpn said June 17, 2006 at 18:43

next time you have a thought keep it to yourself

xmalpn said June 17, 2006 at 18:42

this song is played in dropped D tuning and this isnt the way to play it

masai99797 said April 24, 2006 at 19:37

Nice work just thing im not sure about. In the verse it goes

e|---------------------------|
b|---------------------------|
g|---------------------------|
d|---------------------------|
a|-xx-0hlp0-xx---------x-2---|
E|-xx-------xx-50-0-30-x-0h3-|
^ ^ But hey, i'm not really sure. Just a thought.
i think there should
be spaces to separate
the 50-0-30 to
5-0-0-3-0 or atleast
5-0--0--3-0

Your comment: