Audioslave - Shadow On The Sun Chords & Tabs

 

Shadow On The Sun Chords & Tabs

Audioslave Chords & Tabs

Version: 1 Type: Tab 4 ratings
1 star 2 stars 3 stars 4 stars 5 stars
comments

Shadow On The Sun Tab

   
Artist: Audioslave
Song: Shadow On The Sun
Tabbed By: Babar Raza 
Questions,suicide notes, death threats to babar_666@hotmail.com

The intro is 100% correct but i am not sure about the chorus, you will also have to listen to the song to know which chord goes where in the chorus.

Intro
e|---------------------------------|
B|---------------------------------|
G|---7---7---7---7---7---7---7---7-|
D|-9---9---9---9---9---9---9---9---|
A|---------------------------------|
E|---------------------------------|
[ Tab from: http://www.guitartabs.cc/tabs/a/audioslave/shadow_on_the_sun_tab.html ]
e|---------------------------------|
B|---------------------------------|
G|---6---6---6---6---6---6---6---6-|
D|-7---7---7---7---7---7---7---7---|
A|---------------------------------|
E|---------------------------------|

Chorus
B - D - E
B - D - E
E - D - B

Solo 1
e|------------------------------------------------------|
B|-12~--10~--15~--12~-----------------------------------|
G|------------------------------------------------------|
D|------------------------------------------------------|
A|------------------------------------------------------|
E|------------------------------------------------------|

More to come soon.
Comments