Audioslave - Set It Off Chords & Tabs

 

Set It Off Chords & Tabs

Audioslave Chords & Tabs

Version: 4 Type: Tab 0 ratings
1 star 2 stars 3 stars 4 stars 5 stars
comments

Set It Off Tab

Set It Off-Intro/Bridge/Outro/Main Riff

E|---------------|-----------------------------------------------------
B|---------------|-----------------------------------------------------
G|---------------|-----------------------------------------------------
D|---------------|---------7------------------7------------------------
A|---------------|-----/9-----------------/9---------------------9----7
E|-------0--2--0-|--2---------0--2--0--2---------0--2--0----2----------

--------------|-----------------------------------------------------|
--------------|-----------------------------------------------------|
--------------|-----------------------------------------------------|
--------------|-----------------------------------------------------|
--------------|------9---7--------------9---7-----------------------|
------0--2--0-|--2-----------5------2-----------0--2--0-------------|

Verse Riff

|-----------------------------------------------------------
|-----------------------------------------------------------
|-----------------------------------------------------------
|-----------------------------------------------------------
|-----------------------------------------------------------
|-----2-0-2-X-X-2-2-2-2-0-5-2-0--2-0-2-X-X-2-2-2-2-0-5-2-0--

----------------------------------------------|
----------------------------------------------|
----------------------------------------------|
----------------------------------------------|Reapeat
----------------------------------------------|
2-0-2-X-X-2-2-2-2-0-5-2-0--2-0-2-X-X-2-0/12--5|

Chorus Riff
[ Tab from: http://www.guitartabs.cc/tabs/a/audioslave/set_it_off_tab_ver_4.html ]
|--------------------------------------------------------------------------
|--------------------------------------------------------------------------
|--------------------------------------------------------------------------
|-------7----------------|-------7----------------|-------7----------------
|----/9-----9-7-----7-9--|----/9-----9-7-----7-9--|----/9-----9-7-----7-9--
|--2-------------9-------|--2-------------9-------|--2-------------9-------

|-------------|------------------------------------------------------------
|-------------|------------------------------------------------------------
|-------------|------------------------------------------------------------
|-------------|------------------------------------------------------------
|-----9--7----|-----9--7---------------------------------------------------
|--2---------5|--2-------0-2-0---------------------------------------------

Middle Section
        3 Bar Rest      x4
|------------------|----------|-----------|--------------------------------
|------------------|--17------|-----------|--------------------------------
|------------------|--18------|--4--------|--4-----x-6---2-----------------
|------------------|--16------|--5--------|--5-----x-7---4-----------------
|------------------|----------|--5--------|--5-----x-7---4-----------------
|--2---------------|----------|--3--------|--3-----x-5---2-----------------

|--------------------------------------------------------------------------
|---------------------------------0----------------------------------------
|--2------------------------------1----------------------------------------
|--4-----------2-2-2-2-2-2-2-2----2----------------------------------------
|--4-----------2-2-2-2-2-2-2-2----2----------------------------------------
|--2-----------0-0-0-0-0-0-0-0----0--------------------------------12\-----
Comments