Audioslave - Set It Off Chords & Tabs

 

Set It Off Chords & Tabs

Audioslave Chords & Tabs

Version: 2 Type: Tab 0 ratings
1 star 2 stars 3 stars 4 stars 5 stars
comments

Set It Off Tab

   
by:josh
band:Audioslave
album:Audioslave
song:Set It Off
tuning:E A D G B E
date:December 17, 2002

im positive this is correct so save the bad ratings....

intro : with som effect
i have no idea what tom is doin in this intro maybe somebody 
can figure it out and put it on corrects or something

preverse : heavy distortion
E----------------------------------------------------------
B----------------------------------------------------------
G----------------------------------------------------------
D---------4-/-7---------4-/-7---------4-/-7---------4----2-
A----------------------------------------------------------
E-0-2-0-2-------0-2-0-2-------0-2-0-2-------0-2-0-2--------

post preverse : heavy distortion
E------------
B------------
G------------
D------------
A-----0------
E------------

verse : heavy distortion and palm muted
E--------------------------------------------------------------------------------------
B--------------------------------------------------------------------------------------
G--------------------------------------------------------------------------------------
D--------------------------------------------------------------------------------------
A---------------------------------------------------------------------------------7----
E-2-0-x-x-2-0-2-0-5-2-0--2-0-2-x-x-2-0-5-2-0--2-0-2-x-x-2-0-5-2-0--2-0-2-x-x-2-0-----5-
[ Tab from: http://www.guitartabs.cc/tabs/a/audioslave/set_it_off_tab_ver_2.html ]
chorus : heavy distortion
E--------------------
B--------------------
G--------------------
D-------7------------
A----9-----9-7---7-9-
E-2------------9-----

post chorus : 
heavy distortion
E---------------
B---------------
G---------------
D---------------
A-----9---7---0-
E-2-------------

prebreakdown : 
heavy distortion
E---------
B---------
G---------
D---------
A---------
E-0-2-0-2-

breakdown 1 : heavy distortion and wah wah
on this part all you do is turn on the wah-wah pedal 
and press it down and then pull the electrical chord 
out of the guitar and touch the tip of it to the pickup 
that you are using 

breakdown 2 : clean
E----------------------------------------------
B----------------------------------------------
G----------------------------------------------
D-5---5---7---4--------------------------------
A-5---5---7---4---2-2-2-2-2-2-2-2--------------
E-3---3---5---2---0-0-0-0-0-0-0-0----------12/-

outro : heavy distortion
E---------------------------------------------------------------
B---------------------------------------------------------------
G---------------------------------------------------------------
D---------4-/-7---------4-/-7---------4-/-7---------4----2------
A-------------------------------------------------------------0-
E-0-2-0-2-------0-2-0-2-------0-2-0-2-------0-2-0-2-------------

order:
intro
preverse 2x
postpreverse 1x
verse 2x
chorus 3x
postchorus 1x
chorus 3x
postchorus 1x
verse 2x
chorus 3x
postchorus 1x
chorus 3x
postchorus 1x
preverse 2x
prebreakdown 1x
breakdown1 4x
breakdown2 1x
chorus 3x
postchorus 1x
chorus 3x
postchorus 1x
preverse 1x
outro 1x
Comments