Audioslave - Set It Off Chords & Tabs

 

Set It Off Chords & Tabs

Audioslave Chords & Tabs

Version: 1 Type: Tab 0 ratings
1 star 2 stars 3 stars 4 stars 5 stars
comments

Set It Off Tab

Audioslave - Set it off

Submitted by:
Know your enemy
first_offender@hotmail.com

Drop D Tuning

Intro - Dont have a clue..Some very strange effect...If you know please E-Mail me.

Intro 2
E:---------------------
B:---------------------
G:---------------------
D:-2--4--2--4------7---
A--2--4--2--4---/9-----
D:-2--4--2--4---------- X3

E:--------------------------
B:--------------------------
G:--------------11----9-----
D:-2--4--2--4---11----9-----
A:-2--4--2--4---9-----7-----
D:-2--4--2--4---x-----x-----

E:---------------------
B:---------------------
G:---------------------
D:-2--4--2--4------7---
A:-2--4--2--4---/9-----
D:-2--4--2--4---------- X3

E:------------------------------
B:------------------------------
G:--------------11----9--------
D:-2--4--2--4---11----9----7---
A:-2--4--2--4---9-----7----7---
D:-2--4--2--4---x-----x----7---

Verse
E:--------------------------
B:--------------------------
G:--------------------------
D:--------------------------
A:-------------------0------
D:-4-2-4---4-2-4-4-2---4-2-- X3

E:--------------------------
B:--------------------------
G:--------------9-----------
D:--------------9-----7-----
A:--------------7-----7-----
D:-4-2-4---4-2--x-----7-----

Repeat until Chorus

Chorus
E:----------------------
B:----------------------
G:----------------------
D:-4------7--7*---------
A:-4---/9------9-0-7-9--
D:-4-------------------- X3

E:----------------------
B:----------------------
G:------11----9---------
D:-4----11----9----7----
A:-4----9-----7----7----
D:-4---------------7----

Repeat Chorus
Repeat Verse

Chorus
E:----------------------
B:----------------------
G:----------------------
D:-4------7--7*---------
A:-4---/9------9-0-7-9--
D:-4-------------------- X3

E:----------------------
B:----------------------
G:------11----9---------
D:-4----11----9----7----
A:-4----9-----7----7----
D:-4---------------7----

E:----------------------
B:----------------------
G:----------------------
D:-4------7--7*---------
A:-4---/9------9-0-7-9--
D:-4-------------------- X3

E:----------------------------------
B:----------------------------------
G:-----11---9-----------------------
D:-4---11---9---2--4--2--4------7---
A:-4---9----7---2--4--2--4---/9-----
D:-4------------2--4--2--4----------

E:---------------------
B:---------------------
G:---------------------
D:-2--4--2--4------7---
A--2--4--2--4---/9-----
D:-2--4--2--4---------- X2
[ Tab from: http://www.guitartabs.cc/tabs/a/audioslave/set_it_off_tab.html ]
E:--------------------------
B:--------------------------
G:--------------11----9-----
D:-2--4--2--4---11----9-----
A:-2--4--2--4---9-----7-----
D:-2--4--2--4---x-----x-----

E:---------------------
B:---------------------
G:---------------------
D:-2--4--2--4------7---
A:-2--4--2--4---/9-----
D:-2--4--2--4---------- X3

E:----------------------------
B:----------------------------
G:--------------11----9-------
D:-2--4--2--4---11----9----7--
A:-2--4--2--4---9-----7----7--
D:-2--4--2--4---x-----x----7--

"Jesus at the back door"...........

In this funky Bass Part he does some strange noise. 
Not too sure what it is but this sounds ok.
E:-------------
B:-10b11-------
G:-10b11-------
D:-------------
A:-------------
D:-------------

Then.....
E:-----------------------------------------------
B:-----------------------------------------------
G:-----------------------------------------------
D:-5~-----5~---7~---4~----(-2-2-2-2-2-2-2-2-)----
A:-5~-----5~---7~---4~----(-2-2-2-2-2-2-2-2-)----
D:-5~-----5~---7~---4~----(-2-2-2-2-2-2-2-2-)----  (Palm Muted)

E:----
B:----
G:----
D:-2~-
A:-2~-
D:-2~-  "Time is Wasted".....

Chorus
E:----------------------
B:----------------------
G:----------------------
D:-4------7--7*---------
A:-4---/9------9-0-7-9--
D:-4-------------------- X3

E:----------------------
B:----------------------
G:------11----9---------
D:-4----11----9----7----
A:-4----9-----7----7----
D:-4---------------7----

E:----------------------
B:----------------------
G:----------------------
D:-4------7--7*---------
A:-4---/9------9-0-7-9--
D:-4-------------------- X3

E:--------------------------------
B:--------------------------------
G:------11----9-------------------
D:-4----11----9----2-4-2-4------7-
A:-4----9-----7----2-4-2-4---/9---
D:-4---------------2-4-2-4--------

E:---------------------
B:---------------------
G:---------------------
D:-2--4--2--4------7---
A--2--4--2--4---/9-----
D:-2--4--2--4---------- X2

E:--------------------------
B:--------------------------
G:--------------11----9-----
D:-2--4--2--4---11----9-----
A:-2--4--2--4---9-----7-----
D:-2--4--2--4---x-----x-----

E:---------------------
B:---------------------
G:---------------------
D:-2--4--2--4------7---
A:-2--4--2--4---/9-----
D:-2--4--2--4---------- X3

E:-----------------------------
B:-----------------------------
G:--------------11----9--------
D:-2--4--2--4---11----9----7~--
A:-2--4--2--4---9-----7----7~--
D:-2--4--2--4---x-----x----7~--


Questions or comments? Email me @ First_offender@hotmail.com
Comments