Audioslave - Out Of Exile Chords & Tabs

 

Out Of Exile Chords & Tabs

Audioslave Chords & Tabs

Version: 1 Type: Bass Tab 0 ratings
1 star 2 stars 3 stars 4 stars 5 stars
comments

Out Of Exile Bass Tab

----------------------------------------------------------------------------
			     SONG NAME - Band Name
----------------------------------------------------------------------------

Tabbed By : 
e-mail: seanymo500@yahoo.com

Tuning:Drop D

Intro

G|-------------------------------------------------------------------------|
D|-------------------------------------------------------------------------|
A|--------3h5-5-5---------3-0-3-5------------------------------------------|
D|-/12------------3-3-3h5---------3-5-3-3-0--------------------------------|

Verse
[ Tab from: http://www.guitartabs.cc/tabs/a/audioslave/out_of_exile_btab.html ]
G|------------------|
D|-0-0-0-12-12-10---|
A|------------------|
D|------------------|

Chorus                                                             Send my..
G|-----------------------------------------------------------------|-------|
D|-----------------------------------------------------------------|-------|
A|--------3h5-5-5-5---------3-0-3-5-------------3h5-5-5-5----------|-------|
D|--/12-------------3-3-3h5---------3-5-3-3-0-------------3-3-3h5--|-------|

G|---------------|
D|-------------3-|
A|-------0h3h5---|
D|-0h3h5---------|

The guitar soul is basically the intro



Order:
drum and guitar intro
Intro x 4
Verse x 8
Chorus x 2
Verse x 8
Guitar soul
drum and guitar intro
Chorus x 2
Intro x 2
Comments