Audioslave - Man Or Animal Chords & Tabs

 

Man Or Animal Chords & Tabs

Audioslave Chords & Tabs

Version: 2 Type: Bass Tab

Man Or Animal Bass Tab

AUDIOSLAVE- MAN OR ANIMAL

Album- Out Of Exile
While the guitar is doin its thing you do this
Intro 1
----------------------------|
----------------------------|
----------------------------|
-22222222-------------------| just do that a bunch of times until

Intro 2

-------------------------------|
-------------------------------|
--0------0------0-------0--2---|
----2-02---2-02----2-02---2----|

Verse part 1
------------------------------|
------------------------------|
------------------------------|
--22--22--22--22--------------| Rpt 1x

then go
[ Tab from: http://www.guitartabs.cc/tabs/a/audioslave/man_or_animal_btab_ver_2.html ]
Verse part 2
-----------------------------|
-----------------------------|
-22-22-22--------------------| Rpt that a few songs.. Listen to the song to ace
-----------------------------|it

then Chorus

------------------------|
------------------------|
--5--7--4-4-2-----------| Rpt 2x after you've done it once
------------------------|

then go back to Verse Part one to Part 2 then repeat part 1 and 2

Chorus

Then during the little bridge while the guitar is bein all trippy do intro 2 until it 
then at the end the choruses colide so its like

-------------------------|
-------------------------|
--5--7--0-----0----------|
----------2-02--2-02-----| rpt 3 times then just do Intro 2 to end