Audioslave - Light My Way Chords & Tabs

 

Light My Way Chords & Tabs

Audioslave Chords & Tabs

Version: 6 Type: Tab

Light My Way Tab

   
    ________________
   / Ausioslave    /  This song is about this guy, who needs his love the most.
  / Light My Way  /  He has been straying for a long time, maybe for many years,
 / Audioslave    /  but he has finally realized that the one, he really needs,
/_______________/  is the calm love back home.


Tuning: Drop D (D A D G B E)
Gtrs I, II - Overdriven
Gtr III - Clean w/Wah pedal
Gtr IV - Clean w/Tremolo


 Intro:
 Q=83 bpm
 4/4
 Gtrs I, II
    S E.    E   S S +E    E.    E.      S E.    E   S S +E    E.    E.     4x
||------------------------------------|------------------------------------||
||o-----------------------------------|-----------------------------------o||
||------------------------------------|------------------------------------||
||------------------------------------|------------------------------------||
||o-3-0-----0---0-3-(3)---5-----3-----|-3-0-----0---0---------------3-----o||
||--3-0-----0---0---------------------|-3-0-----0---0-3-(3)---5------------||
 |-Riff                                                           end Riff-|


 Gtr III
    O   +   O   +   O   +   O   +     O   +   O   +   O   +   O   +
    E   E   E   E   E   E   E   E     E   E   E   E   E   E   E   E
||----------------------------------|----------------------------------||
||o---------------------------------|---------------------------------o||
||----------------------------------|----------------------------------||
||----------------------------------|----------------------------------||
||o-5---------------8---------------|-3-------------------------------o||
||----------------------------------|----------------------------------||




 1st Verse:
 Gtr III
    O   +   O   +   O   +   O   +     O   +   O   +   O   +   O   +
    E   E   E   E   E   E   E   E     E   E   E   E   E   E   E   E    8x
||----------------------------------|----------------------------------||
||o---------------------------------|---------------------------------o||
||----------------------------------|----------------------------------||
||----------------------------------|----------------------------------||
||o-5---------------8---------------|-3-------------------------------o||
||----------------------------------|----------------------------------||
...in my hour of need...




 Chorus:
Riff x4




 2nd Verse:
similar to 1st Verse




 Chorus:
Riff x3, then:

  S E.    E   S S +E    E.    E.      S E.    E   S S +E    E.    E.
|-----------------------------------|-----------------------------------|
|-----------------------------------|-----------------------------------|
|-----------------------------------|-----------------------------------|
|-----------------------------------|-----------------------------------|
|-3-0-----0---0-3-(3)---5-----3-----|-3-0-----0---0---------------------|
|-3-0-----0---0---------------------|-3-0-----0---0-3-(3)---5-----6-----|




 Bridge:
 Gtr IV
  A5                                 C5
  E   E   E   E   E   E   E   E      E    E    E    E    E    E    E    E
|---------------------------------|-----------------------------------------|
|---------------------------------|-----------------------------------------|
|---------------------------------|-----------------------------------------|
|---------7---------------7-------|-----------10------------------10--------|
|-----7-------7-------7-------7---|------10--------10--------10--------10---|
|-7---------------7---------------|-10------------------10------------------|
...so when I'm lost...

[ Tab from: http://www.guitartabs.cc/tabs/a/audioslave/light_my_way_tab_ver_6.html ]
  G#7(no5)                            G7(no5)
  E   E    E   E   E   E    E   E     E   E   E   E   E   E   E   E
|-----------------------------------|---------------------------------|
|-----------------------------------|---------------------------------|
|-----------------------------------|---------------------------------|
|---------10---------------10-------|---------9---------------9-------|
|-----9--------9-------9--------9---|-----8-------8-------8-----------|
|-6----------------6----------------|-5---------------5-----------6---|


  A5                                 C5
  E   E   E   E   E   E   E   E      E    E    E    E    E    E    E    E
|---------------------------------|-----------------------------------------|
|---------------------------------|-----------------------------------------|
|---------------------------------|-----------------------------------------|
|---------7---------------7-------|-----------10------------------10--------|
|-----7-------7-------7-------7---|------10--------10--------10--------10---|
|-7---------------7---------------|-10------------------10------------------|


  G#7(no5)                            G7(no5)
  E   E    E   E   E   E    E   E     E   E   E   E   E   E   E   E
|-----------------------------------|---------------------------------|
|-----------------------------------|---------------------------------|
|-----------------------------------|---------------------------------|
|---------10---------------10-------|---------9---------------9-------|
|-----9--------9-------9--------9---|-----8-------8-------8-------8---|
|-6----------------6----------------|-5---------------5---------------|



 Gtrs I, II (without overdrive)
    Dm                F/C               C                 Dm
    W                 W                 W                 W
||--1---------------|-----------------|-----------------|-1----------------||
||o-3---------------|-1---------------|-1---------------|-3---------------o||
||--2---------------|-2---------------|-0---------------|-2----------------||
||--0---------------|-3---------------|-2---------------|-0----------------||
||o-----------------|-3---------------|-3---------------|-----------------o||
||------------------|-----------------|-----------------|------------------||
...don't save it for another day...



 (and now back on with the overdrive)
    E.    E.    E.    E.    Q         E.    E.    E.    E.  +Q         4x
||----------------------------------|----------------------------------||
||o---------------------------------|---------------------------------o||
||----------------------------------|----------------------------------||
||--5-----7-----5-----7-------------|-5-----7-----5-----7---(7)--------||
||o-3-----5-----3-----5-------------|-3-----5-----3-----5---(5)-------o||
||--------------------------0-------|----------------------------------||
...hey, don't save it for another day...




 Chorus:
Riff 4x, then:

  S E.    E   S S +E    E.    E.      S E.    E   S S +E    E.    E.
|-----------------------------------|-----------------------------------|
|-----------------------------------|-----------------------------------|
|-----------------------------------|-----------------------------------|
|-----------------------------------|-----------------------------------|
|-3-0-----0---0-3-(3)---5-----3-----|-3-0-----0---0---------------------|
|-3-0-----0---0---------------------|-3-0-----0---0-3-(3)---5-----6-----|
...won't you light my way?...


  +Q         H.
|---------------------------------|
|---------------------------------|
|---------------------------------|
|---------------------------------|
|---------------------------------|
|-(6)\----------------------------|



  In my hour of need
  On a sea of grey
  On my knees I pray to you
  Help me find the dawn
  Of the dying day

  Won't you light my way?
  Won't you light my way?
 
  A bullet is a man
  From time to time he strays
  I compare my life to this - to this I relate
  And I'm willing to listen to your answers
  And I'm not afraid to tell you I need you today

  So when I'm lost
  Or I'm tired and depraved
  Or when my high bullet mind goes astray
  Won't you light my way?

  Don't save it for another day


- 2nd /May /06
Just mail me at Maitinin@gmail.com with questions, comments and corrections!