Audioslave - Light My Way Chords & Tabs

 

Light My Way Chords & Tabs

Audioslave Chords & Tabs

Version: 5 Type: Tab 0 ratings
1 star 2 stars 3 stars 4 stars 5 stars
comments

Light My Way Tab

   
by:josh
band:Audioslave
album:Audioslave
song:Light My Way
tuning:D A D G B E

i think this tab is right but not sure so good luck......
i gotta tell ya i have no clue what effects are used on this song 
but maybe one of you pedal guys can figure it out and tell me

key:
( ) = only last time

intro
E-22-22-22------22-22-22------22-22-
B-----------------------------------
G-----------------------------------
D-----------------------------------
A-----------------------------------
D-----------------------------------

verse 
E-----------------
B-----------------
G-----------------
D-----3-3---------
A-5-5-----3-3-3-3-
D-----------------

chorus 
E-------------------------
B-------------------------
G-------------------------
D-------------------------
A-------3-5-3-----------3-
D-0-0-0-------0-0-0-3-5---

verse 2
E-----------------
B-----------------
G-----------------
D-----3-3---------
A-5-5-----3-3-3-3-
D-----------------

i think a second guitar is playin this every few secs. while guitar 1 is
playin the main verse could be anything but my brothers moterolla cell phone
makes this same noise when i turns on and off but anyway i think this is how
its played
[ Tab from: http://www.guitartabs.cc/tabs/a/audioslave/light_my_way_tab_ver_5.html ]
verse on guitar 2
E-------------------------------3h5p3-5p3h5-------------------------------
B-------------------------3h5p3-------------5p3h5-------------------------
G-------------------3h5p3-------------------------5p3h5-------------------
D-------------3h5p3-------------------------------------5p3h5-------------
A-------3h5p3-------------------------------------------------5p3h5-------
D-3h5p3-------------------------------------------------------------5p3h5-

breakdown 1
E-----------------------------------------------------------------
B-----------------------------------------------------------------
G-----7-------7-----------------------5-------5-------5-------5---
D---7---7---7---7-----3-------3-----5---5---5---5---5---5---5---5-
A-5-------5---------3---3---3---3-3-------3-------3-------3-------
D-----------------3-------3---------------------------------------

breakdown 2
E---------------
B-7-------5---5-
G-7---2---5---5-
D-7---3---5---5-
A-5---3---3---3-
D-----3---------

breakdown 3
E-----------
B-----------
G-----------
D-----------
A-3-5-3-5---
D---------0-

breakdown 4 
E-----------------
B-----------------
G-5-7-5-7---------
D-5-7-5-7-0-------
A-3-5-3-5-0-------
D---------0-(12/)-

order:
intro 1x
chorus 4x
verse 10x
chorus 4x
verse 2 10x
chorus 4x
breakdown 1 2x
breakdown 2 2x
breakdown 3 4x
breakdown 4 4x
chorus 8x
Comments