Audioslave - Last Remaining Light Chords & Tabs

 

Last Remaining Light Chords & Tabs

Audioslave Chords & Tabs

Version: 1 Type: Tab 0 ratings
1 star 2 stars 3 stars 4 stars 5 stars
comments

Last Remaining Light Tab

Artist: Audioslave
Song: The Last Remaining Light
Tabbed By: Babar Raza 
Questions,suicide notes, death threats to babar_666@hotmail.com

~ = Let Ring

Intro
e|-1~-----0~-----3~-----1~----|
B|----3~-----2~-----3~-----3~-|
G|----------------------------|
D|----------------------------|
A|----------------------------|
E|----------------------------|

Verse
e|-1~-----3~-----3~-----1~----|
B|----3~-----3~-----3~-----3~-|
G|----------------------------|
D|----------------------------|
A|----------------------------|
E|----------------------------|
[ Tab from: http://www.guitartabs.cc/tabs/a/audioslave/last_remaining_light_tab.html ]
Chorus
e|-----0-1~----------1-3~----------3-5~-----|
B|---1------1------1------1------3------3---|
G|-2----------2--1----------1--3----------3-|
D|------------------------------------------|
A|------------------------------------------|
E|------------------------------------------|
                   OR
e|-----1-3~----------2-4~----------3-5~-----|
B|---1------1------2------2------3------3---|
G|-1----------1--2----------2--3----------3-|
D|------------------------------------------|
A|------------------------------------------|
E|------------------------------------------|
Comments