Audioslave - I Am The Highway Chords & Tabs

 

I Am The Highway Chords & Tabs

Audioslave Chords & Tabs

Version: 3 Type: Tab 0 ratings
1 star 2 stars 3 stars 4 stars 5 stars
comments

I Am The Highway Tab

I think it's all correct, listen to the song to get the timing.
rogelioatc@hotmail.com
If you have any comments or doubt just check the corrections.


e|-----------------------------------------------------------------------------
B|-----------------------------------------------------------------------------
G|-------------------------12-12-12-12-12-9------------------------------------
D|10-10-10-10-10-10-10-10-------------------12-------10-10-10-10-10----10-9-10-
A|---------------------------------------------12-------------------12---------
E|-----------------------------------------------------------------------------


e|-----------------------------------------------------------------------------
B|-----------------------------------------------------------------------------
G|-----------------------------------9-10-10-9-9-------------------------------
D|10-10----9-9-10-10-10-10-10-10-12---------------10-10------10-10-10-10-10----
A|-------------------------------------------------------12--------------------
E|-----------------------------------------------------------------------------

[ Tab from: http://www.guitartabs.cc/tabs/a/audioslave/i_am_the_highway_tab_ver_3.html ]
e|---------------10-10---------10----------------------------------------------
B|--------10-10---------10-10--------10-10-13-10-10----------------------------
G|--------------------------------12----------------12-12-9-12-12-9------------
D|---10-------------------------------------------------------------12-10------
A|12----------------------------------------------------------------------12-12
E|-----------------------------------------------------------------------------


e|-----------------------------------------------------------------------------
B|10-10-13-10-10---------------10-10-10/12-12-15-15-13-13-12-12----------------
G|---------------12-12-9-12-12-----------------------------------14-14---------
D|-----------------------------------------------------------------------------
A|-----------------------------------------------------------------------------
E|-----------------------------------------------------------------------------


e|-12-12-----------------------------------------------------------------------
B|-------15-15-13-13-12-12-------------------12-12-----------------------------
G|-------------------------12-12-------12-12-------14-14-14-14-14-14-14--------
D|-------------------------------14-14-----------------------------------------
A|-----------------------------------------------------------------------------
E|-----------------------------------------------------------------------------
Comments