Audioslave - I Am The Highway Solo Chords & Tabs

 

I Am The Highway Solo Chords & Tabs

Audioslave Chords & Tabs

Version: 1 Type: Tab 0 ratings
1 star 2 stars 3 stars 4 stars 5 stars
comments

I Am The Highway Solo Tab

If it isn´t correct, sorry, it´s my first tab. 
Try it and enjoy!


e|----------------------|----------------------|----------------------|----------------------|
B|----------------------|-8-8------------------|----------------------|-------------------5--|
G|-----5-5-----5-7-59--|-----9-7-5---5-5-5-5--|---5/7-5-7/5----------|-4-4-5-5-5-5---5-7----|
D|-7-7-----7-7----------|-----------7----------|-7-----------7-5------|-------------7--------|
A|----------------------|----------------------|-----------------7-7-7|----------------------|
E|----------------------|----------------------|----------------------|----------------------|
[ Tab from: http://www.guitartabs.cc/tabs/a/audioslave/i_am_the_highway_solo_tab.html ]
e|----------------------|----------------------|----------------------|-------8-8------------|
B|-6-6------------------|----------------------|----------------------|-10-10-----10-8-8---8-|
G|-----7-7---5-7-----5--|-5-5-----5-7----------|----------------------|------------------9---|
D|---------7-----5h7----|-------7--------------|----------------5-7-5-|----------------------|
A|----------------------|----------------------|----------------------|----------------------|
E|----------------------|----------------------|----------------------|----------------------|

e|----------------------|-8-8------------------|----------8-7-10-10-8-|-8-7-7-------12-12-10-|
B|-8-------------10-10--|-----10-8-8---8-8-10--|-10-10-10-------------|-------10-10----------|
G|---7------------------|------------9---------|----------------------|----------------------|
D|---------7------------|----------------------|----------------------|----------------------|
A|----------------------|----------------------|----------------------|----------------------|
E|----------------------|----------------------|----------------------|----------------------|


e|-10-8-8-7-7-----------|---7-7-5--5-5-5-5-5-5-|
B|------------8-8-5-5-8-|-8--------------------|
G|----------------------|----------------------|
D|----------------------|----------------------|
A|----------------------|----------------------|
E|----------------------|----------------------|


Chato
celula5000@msn.com
Comments