Audioslave - I Am The Highway Chords & Tabs

 

I Am The Highway Chords & Tabs

Audioslave Chords & Tabs

Version: 1 Type: Bass Tab 0 ratings
1 star 2 stars 3 stars 4 stars 5 stars
comments

I Am The Highway Bass Tab

Song : I am the highway
Artist:  Audioslave
Tabbed by: Daniel Mancha
e-mail: mudddann@hotmail.com


Intro,, and verse:

G|----------------------------------|     
D|----------------------------------|
A|--------3-333-3-------0-000-0-----|    x3
E|-1-111-1-------3-333-3------------|

Continue:
I was lost in the cities...      Alone in the hills...            

G|------------------------------|-----------------------|
D|------------------------------|-----------------------|
A|------------3-0-0-0-----------|----------3-0-0-0------|
E|-1-111-1----------------------|-3-333-3---------------|
[ Tab from: http://www.guitartabs.cc/tabs/a/audioslave/i_am_the_highway_btab.html ]
G|----------------------------------|     
D|----------------------------------|
A|--------3-333-3-------3-0---------|    x1
E|-1-111-1-------3-333-3------------|

Chorus:                                    Second time end with:
                                                  skyyyy...
G|----------------------------------|     |--------------------------| 
D|----------------------------------|     |--------------------------|
A|-33333333--------55555555---------|  x2 |---7-let ring--7-let ring-|
E|---------33333333--------55555555-|     |--------------------------|

Solo part:

G|----------------------------------|     
D|----------------------------------|
A|---------33333333--------00000000-|    x3
E|-11111111--------33333333---------|

End with:

G|--------------|     
D|--------------|
A|-----7--------|    
E|--------------|

If it is wrong please e-mail me for corrections.
Comments