Audioslave - Heavens Dead Chords & Tabs

 

Heavens Dead Chords & Tabs

Audioslave Chords & Tabs

Version: 5 Type: Tab 0 ratings
1 star 2 stars 3 stars 4 stars 5 stars
comments

Heavens Dead Tab

   
Heaven's dead - Audioslave
-----------------------------------------------------------------
Tabbed by:Matt

Sounds to me like the guitar is a les paul if you need to get
the same tone.


 / slide up
 \ slide down
 h ham-am-m-mer-on
 p p'ull'off
 b beeeend
 ~ do the finger vibe
 * harmonic
 x Mute note, but still play it (see: solo)

Tuning:Drop D

Intro to verses

e|---------------------------------------------------------------|
B|---------------------------------------------------------------|
G|---------------------------------------------------------------|
D|---------------------------------------------------------------|
A|9-9-9/10-10-10\7-7-7/9-9-9\5-5-5/7-7-7\2-4/5-5-5---------------|
D|-0-0----0--0----0-0---0-0---0-0---0-0--0----0-0----------------|

  Anchor the night....
  Pray for me not...

  Shipwreck the sun...
  Whisper your songs...

Bass guitar comes in at "Pray..."
I think he's walking the index & middle fingers if you want the 
right action, I'm not a bass player, but I thought I'd do this,
ofcourse it can be played in different positions namely on the
(normal)D & G strings instead.  Ive tried to add a sense of timing, 
not following any pattern, just lining up some of the notes with the
start of words:

G|--------|----------|----------------|----------|----------|------|-
D|--------|-------7--|----------------|----------|----------|------|-
A|55-55-55|5--5--5-5/|9-9-5555-5-5-55-|5--5--5---|/7--7-77--|2-2h4-|5
D|--------|----------|----------------|----------|----------|------|-
  Pray....|not.......|I...............|where...Be|-Long.and.|you...|lie.

Chorus:

Guitar: Note, it seems to sound better with the low D string muted until
the last chord and I mute the G string but I can't tell if Tom does this

e|0---------|0-------------|0-----------|0------------------------|
B|0---------|0-------------|0-----------|0------------------------|
G|X---------|X-------------|X-----------|X------------------------|
D|5---------|7-slide down--|3--let ring-|2--don't play this chord-|
A|5---------|7-------------|3-----------|2--when a verse is-------|
D|5---------|7-------------|3-----------|2--comming straight after|

  Heaven's..|see...........|out.........|had
[ Tab from: http://www.guitartabs.cc/tabs/a/audioslave/heavens_dead_tab_ver_5.html ]
Solo, 
Play the muted string to make the click you hear in the song
(I've updated this so it sounds smoother)
The part where it goes (7)b8b7, start with the "B" string on the 7th fret,
bent to the 8th fret note, then ease it back to the normal 7th note (A#),
do the same sort of thing where it goes (10)b11b10 - that is start with it
fretted on the 10th, bend to the 11th note and released back to 10

e|--10-10--------------------------------------------------------|
B|-X------10~let ring-(7)b8b7--------------------10--------------|
G|7------7-------------------7-9-(10)b11b10p9p7-7--7~let ring----|
D|---------------------------------------------9-----------------|
A|---------------------------------------------------------------|
D|---------------------------------------------------------------|

e|---------------------------------------------------------------|
B|10p8p7-8p7-7-8p7-----------*7*---------------------------------|
G|----------9-----9p7-----*7*---*7*----(*harmonics)--------------|
D|---------------------*7*---------------------------------------|
A|---------------------------------------------------------------|
D|---------------------------------------------------------------|

Now here's the good part, you can do this in a number of positions 
but here's the one I perfer because you can slide down all the way

e|---------------------------------------------------------------|
B|---------------------------------------------------------------|
G|11--\9--\7-\6-2-^4-^6-2----------7(don't play this note going into chorus)
D|-X--\X--\X-\X-0-^2-^4-0-------7h9------------------------------|
A|-9--\7--\5-\4-0-^2-^4-0----------------------------------------|
D|-X--\0--\X-\X-X-^2-^4-0--0h2h4---------------------------------|
                  
^ = Strum whole chord on upstroke be light on the low D string
then on the last chord, let that deep D string rumble away....

go to chorus


Last verse, same as the others exept at the end

e|---------------------------------------------------------------|
B|---------------------------------------------------------------|
G|-------------------------------------------X-------------------|
D|---------------------------------------2-4-0-------------------|
A|9-9-9/10-10-10\7-7-7/9-9-9\5-5-5/7-7-7-2-4-0-------------------|
D|-0-0----0--0----0-0---0-0---0-0---0-0--2-4-0-------------------|

  I'll take it all....

Back to chorus, you can do the rest
Comments