Audioslave - Heavens Dead Chords & Tabs

 

Heavens Dead Chords & Tabs

Audioslave Chords & Tabs

Version: 4 Type: Tab 0 ratings
1 star 2 stars 3 stars 4 stars 5 stars
comments

Heavens Dead Tab

   
Heavens Dead
Audioslave
Out of Exile

Drop D Tuning

Intro/Verse (First 2 times)
e|----------------------------------------------------------|
b|----------------------------------------------------------|
g|----------------------------------------------------------|
d|----------------------------------------------------------|
a|-9-9-9-10-10-10-\7-7-7-9-9-9-5-5-5-7-7-7--2-4-5---5-5-----|
D|--0-0-0--0--0-----0-0-0-0-0-0-0-0-0-0-0-0-0-0-0--0-0-0----|

(3rd time)
e|-----------------------------------------------------------|
b|-----------------------------------------------------------|
g|-----------------------------------------------------------|
d|-----------------------------------------------------------|
a|-9-9-9-10-10-10-\7-7-12\-9-9-9-5-5-5-7-7-7--2-4-5---5-5----|
D|--0-0-0--0--0--0--0-0-----0-0-0-0-0-0-0-0-0-0-0-0--0-0-0---|

Chorus 1: Strum first two chords, end on third 
    G  A   F
e|------------------------|
B|------------------------|
G|------------------------|
D|--5-7---3*-------------|
A|--5--7---3*-------------|
D|--5--7---3*-------------|

Verse

Chorus 2: Strum all chords, except open notes
e|--------------0---| (x2)
B|--------------0---|
G|--------------0---|
D|--5--7--3--2------|
A|--5--7--3--2------|
D|--5--7--3--2------|
[ Tab from: http://www.guitartabs.cc/tabs/a/audioslave/heavens_dead_tab_ver_4.html ]
Solo                        h  h                  
e|---------------------------------------------------------|
b|----15---------------------------------------------------|
g|---------14~~-12p11------------------------14------------|
d|-12---12------------12--14^14^14p12-----12----12~~-------|
a|------------------------------------14-------------------|
D|---------------------------------------------------------|
 
                                 Harmonics 
e|-----------------------------------------|
b|------------------------------------7*---|
g|-14p12p11h12p11-----11---12^11----7*--7*-|
d|-----------------12-------------7*-------|
a|-----------------------------------------|
D|-----------------------------------------|

Breakdown:
e|--------------------------------------------| (x3)
B|--------------------------------------------|
G|-11-9--7-6----------------------------------|
D|-12-11-9-7-0-5--7-------------------10------|
A|-0--0--0-0-0-7--9-0-----------10h12---------|
D|------------------0---0-10h12---------------|

Last Time
e|--------------------------------------------| 
B|--------------------------------------------|
G|-11-9--7-6----------------------------------|
D|-12-11-9-7-0-5--7---------------------------|
A|-0--0--0-0-0-7--9-0-----------10h12\\\\-----|
D|------------------0---0-10h12---------------|

Back into the Chorus

Then back into the verse, but with a different ending:
e|----------------------------------------------------------|
b|----------------------------------------------------------|
g|----------------------------------------------------------|
d|----------------------------------------------------------|
a|-9-9-9-10-10-10-\7-7-7-9-9-9-5-5-5-7-7-7---2-4---5--0-----|
D|--0-0-0--0--0-----0-0-0-0-0-0-0-0-0-0-0-0--2-4---5--0-----|

Breakdown
Comments