Audioslave - Heavens Dead Chords & Tabs

 

Heavens Dead Chords & Tabs

Audioslave Chords & Tabs

Version: 2 Type: Tab 0 ratings
1 star 2 stars 3 stars 4 stars 5 stars
comments

Heavens Dead Tab

Drop D Tuning

Intro/Verse (First 2 times)
e|-------------------------------------------------------------------------|
b|-------------------------------------------------------------------------|
g|-------------------------------------------------------------------------|
d|-------------------------------------------------------------------------|
a|-9-9-9-10-10-10-\7-7-7-9-9-9-5-5-5-7-7-7--2-4-5---5-5--------------------|
E|--0-0-0--0--0-----0-0-0-0-0-0-0-0-0-0-0-0-0-0-0--0-0-0-------------------|

(3rd time)
e|-------------------------------------------------------------------------|
b|-------------------------------------------------------------------------|
g|-------------------------------------------------------------------------|
d|-------------------------------------------------------------------------|
a|-9-9-9-10-10-10-\7-7-12\-9-9-9-5-5-5-7-7-7--2-4-5---5-5------------------|
E|--0-0-0--0--0--0--0-0-----0-0-0-0-0-0-0-0-0-0-0-0--0-0-0-----------------|
[ Tab from: http://www.guitartabs.cc/tabs/a/audioslave/heavens_dead_tab_ver_2.html ]
Chorus (1st time)  (2nd time)
e|---------------|--------------------0------------------------------------|
b|---------------|--------------------0------------------------------------|
g|------------10-|------------10--9---0------------10----------------------|
d|--5----7----10-|--5----7----10--9------5----7----10----------------------|
a|--5----7----8--|--5----7----8---7------5----7----8-----------------------|
E|--5----7-------|--5----7---------------5----7----------------------------|

Solo              p         h  h  p                 p  p  h  p
e|-------------------------------------------------------------------------|
b|-----15------------------------------------------------------------------|
g|-----------14--12^11-----------------------14----14^12^11^12^11----11----|
d|--12----12-----------12--14^14^14^12----12----12----------------12-------|
a|-------------------------------------14----------------------------------|
E|-------------------------------------------------------------------------|
 
     p   Harmonics 
e|-----------------|
b|------------7*---|
g|-12^11----7*--7*-|
d|--------7*-------|
a|-----------------|
E|-----------------|

After Solo
e|-------------------------------------------------------------------------|
b|-------------------------------------------------------------------------|
g|--11-9--7-6--------------------------------------------------------------|
d|--0--0--0-0---2----------------------10-12-------------------------------|
a|--0--0--0-0-0-2-4-0------------10-12-------------------------------------|
E|------------0---4-0---12-10-12-------------------------------------------|



Tabbed by: Tyler Branham
Comments