Audioslave - Heavens Dead Chords & Tabs

 

Heavens Dead Chords & Tabs

Audioslave Chords & Tabs

Version: 1 Type: Tab 1 rating
1 star 2 stars 3 stars 4 stars 5 stars
comments

Heavens Dead Tab

   
Key:
^ hammer on or pull off
* harmonic
b bend

Intro/Verse:

E|--------------------------------------------------------|
B|--------------------------------------------------------|
G|--------------------------------------------------------|
D|--------------------------------------------------------|
A|9-9-9-10-10-10-7-7-7-9-9-9-5-5-5-7-7-7-------9---9--9---|
D|-0-0-0--0--0--0-0-0-0-0-0-0-0-0-0-0-0-0-9-11-12--12-12--|


Chorus: (Slightly different second time, although same chords)
                      
E|------------------------------------------|
B|------------------------------------------|         
G|------------------------------------------|        
D|5 ----7  ----15 ----14--------------------|        
A|5 x6--7 x6---15 x6--14 x6-----------------|        
D|5 ----7  ----15 ----14--------------------|
  Heaven's Dead....


Solo:
[ Tab from: http://www.guitartabs.cc/tabs/a/audioslave/heavens_dead_tab.html ]
E|-----------------------------------------------------------------------------|
B|--15-------------------------------------------------------------------------|
G|------14b-12^11------------------------14----14^12^11^12^11--11-12^11--------|
D|12--12----------14-12-14b14b14b12----12--12----------------14---------14^12--|
A|----------------------------------14-----------------------------------------|
D|-----------------------------------------------------------------------------|
  the best time youve had.....
          
E|----------14----------------------------|
B|-------------15-------------------------|
G|-------14-------------------------------|
D|---12*----------------------------------|
A|14--------------------------------------|
D|----------------------------------------|


Interlude/Breakdown:

E|-----------------------------------------------|
B|-------------------------------------------(7)-|
G|-----------------------------------------5-----|
D|16--14--12--11--0-2--4-0-----------4-5-7-------|
A|16--14--12--11--0-2--4-0-------3^5-------------|
D|16--14--12--11--0-2--4-0-----------------------| 
  For the best times you've had....
Comments