Audioslave - Getaway Car Chords & Tabs

 

Getaway Car Chords & Tabs

Audioslave Chords & Tabs

Version: 3 Type: Tab 0 ratings
1 star 2 stars 3 stars 4 stars 5 stars
comments

Getaway Car Tab

   
Intro/Verse/"Bridge":

  4/4                   1________________  2________
E ||-------------------|-----------------||---------|
B ||*------------------|-----------8----*||-----5---|
G ||--2---------4---5--|-5---------------||-5-------|
D ||--3---------5--(5)-|-7---------------||-7-------|
A ||*------------------|----------------*||---------|
E ||-------------------|-----------------||---------|
      1 + 2 + 3 + 4 +    1 + 2 + 3 + 4 +   (Same rhythm)

 Chorus:                         Play
    C                 F      E  Staccato Dm   Dm7
E |-0---------------|-1-----0---------|-1-----1---------|
B |-1---------0-1-3-|-1-----0---3-1-0-|-3-----1---------|
G |-0---------0-0-0-|-2-----1---1-1-1-|-2-----2---------|
D |-2---------2-2-2-|-3-----2---2-2-2-|-0-----0---------|
A |-3---------3-3-3-|-3-----2---2---2-|-----------------|
E |-----------------|-1-----0---------|-----------------|
    1 + 2 + 3 + 4 +   1 + 2 + 3 + 4 +   1 + 2 + 3 + 4 +
[ Tab from: http://www.guitartabs.cc/tabs/a/audioslave/getaway_car_tab_ver_3.html ]
    E     E7         Am                 F     E   staccato
E |-0-----0---------|(0)--------------|-1-----0---------|
B |-0-----3---------|-1---------0-1-3-|-1-----0---3-1-0-|
G |-1-----1---------|-2---------2-2-2-|-2-----1---1-1-1-|
D |-2-----2---------|-2---------2-2-2-|-3-----2---2-2-2-|
A |-2-----2---------|-0---------0-0-0-|-3-----2---2---2-|
E |-0-----0---------|-----------------|-1-----0---------|
    1 + 2 + 3 + 4 +   1 + 2 + 3 + 4 +   1 + 2 + 3 + 4 +   

   Dm    Dm7          E     E7
E |-1-----1---------|-0-----0---------|
B |-3-----1---------|-0-----3---------|
G |-2-----2---------|-1-----1---------|
D |-0-----0---------|-2-----2---------|
A |-----------------|-2-----2---------|
E |-----------------|-0-----0---------|
    1 + 2 + 3 + 4 +   1 + 2 + 3 + 4 +

That is basically the whole song give or take a few
nuances during the chorus; the fill that rings during
the second verse; and the solo.
I'm not a big solo fan nor am I a note-for-note player
of other people's songs but here are a few notes
that Morello plays during the solo:
   
E |-5-----8--
B |-5-----8--
G |-5---7-8--
D |-5---7----
A |-5---7----
E |----------

That ought to give you an idea of what he's doing. 
I don't have the song here with me else I'd put
some phrases that he does.
If you have any questions or comments, e-mail me.

Mike
GtrstCmpsr13@aol.com
Comments