Audioslave - Getaway Car Chords & Tabs

 

Getaway Car Chords & Tabs

Audioslave Chords & Tabs

Version: 1 Type: Tab 0 ratings
1 star 2 stars 3 stars 4 stars 5 stars
comments

Getaway Car Tab

   
Artist: Audioslave
Song: Getaway car
Tabbed By: Babar Raza 
Questions,suicide notes, death threats to babar_666@hotmail.com

~ = Let ring
b = bend
r = release
h = hammer on
p = pull-off
/ = slide down
\ = slide up

Intro/Verse
e|-------------------|-------------------|
B|-0--r--0-r-0-0--8~-|-0--r--0-r-0-0--5~-|
G|-2--e--4-e-5-5-----|-2--e--4-e-5-5-----|
D|-3--s--5-s-7-7-----|-3--s--5-s-7-7-----|
A|----t----t---------|----t----t---------|
E|-------------------|-------------------|

Chorus
e|------------------------------------------------------|
B|-1-r---------------------------------------1--3~-r-5~-|
G|-2-e-4-5-7-10-r-12--9~---9-7-5-4-r-2-r-1-r-2-----e----|
D|-2-s-5-7-9-10-e-10-10~--10-9-7-5-e-3-e-2-e-2-----s----|
A|---t----------s------------------s---s---s-------t----|
E|--------------t------------------t---t---t------------|
[ Tab from: http://www.guitartabs.cc/tabs/a/audioslave/getaway_car_tab.html ]
e|------------------------------------------------------|
B|-1-r---------------------------------------1--3~-3/5~-|
G|-2-e-4-5-7-10-r-12--9~---9-7-5-4-r-2-r-1-r-2----------|
D|-2-s-5-7-9-10-e-10-10~--10-9-7-5-e-3-e-2-e-2----------|
A|---t----------s------------------s---s---s------------|
E|--------------t------------------t---t---t------------|

Solo
e|------------------------------------|
B|------------------------------------|
G|---------5~-------------------------| 
D|-----5-7---7~------5-7-5~--------5~-|
A|-5h7-----------5-7-------7~--5h7----|
E|------------------------------------|

e|--------------------------------------------------| the last bend
B|--------------------------7b-8-8-7b------------5b-| can also be a G|-----7b9r7--5-4~----------7b-----7b------5~-7--7b-|      6b
D|-5-7-------------5---5b~-------------5h7----------|      7b
A|-------------------7------------------------------| do which ever
E|--------------------------------------------------| sounds best.

e|---------------------------7~-|
B|-------------------------5~---|
G|-7b8-5------7b9--------5~-----|
D|-------7-5------7-5--7~-------|
A|------------------------------|
E|------------------------------|

Outro w/ effect
e|-------------------|----------------|
B|-0--r--0-r-0-0--8~-|-0--r--0-r-0-5~-|
G|-2--e--4-e-5-5-----|-2--e--4-e-5-5~-|
D|-3--s--5-s-7-7-----|-3--s--5-s-7-7~-|
A|----t----t---------|----t----t------|
E|-------------------|----------------|
Comments