Audioslave - Getaway Car Chords & Tabs

 

Getaway Car Chords & Tabs

Audioslave Chords & Tabs

Version: 1 Type: Bass Tab 0 ratings
1 star 2 stars 3 stars 4 stars 5 stars
comments

Getaway Car Bass Tab

Band- Audioslave
Song- Getaway Car

Key: D minor
Tuning: Standard 5 string

Verse
G-------------------------------------------||
D------------------------------------------*||
A-------------------------------------------||
E--3---5-6----------------------3--5-------*||
B----------5-6--5-5-5--3-3--5-6------5-5-6--||
[ Tab from: http://www.guitartabs.cc/tabs/a/audioslave/getaway_car_btab.html ]
Chorus
G--------------------|---|-9-|
D------------5---7~-*|-7-|---|
A--3~---5~-----------|-0-|---|
E-------------------*|---|---|
B--------------------|---|---|
		       ^Pick one or play both w/e sounds best
Bridge		     3x
G----------------------|------|
D--------------5---7--*|------|
A--3~-----5~-----------|------|
E-----3-5----5--------*|--09\-| Play sround within the scale i dont know 
B----------------------|------| the whole bridge i just improve it
			  ^ the 0 is like a grace note
-
-
-
-
-
-
-
ENJOY!!!!
Comments