Audioslave - Exploder Chords & Tabs

 

Exploder Chords & Tabs

Audioslave Chords & Tabs

Version: 2 Type: Tab 0 ratings
1 star 2 stars 3 stars 4 stars 5 stars
comments

Exploder Tab

Tablatura de NICO M. (nicokbbl@hotmail.com)

Artista: Audioslave
Cancion: Exploder
Album: Audioslave (2002) 




1|--22222222222222222222222222222222--|
2|------------------------------------|
3|------------------------------------|
4|------------------------------------|
5|------------------------------------|
6|------------------------------------|


1|--2222222222222222--0000000000000000--|
2|--------------------------------------|
3|--------------------------------------|x2
4|--------------------------------------|
5|--------------------------------------|
6|--------------------------------------|


1|---------------------------------------------------------|
2|---------------------------------------------------------|
3|---------------------------------------------------------|x3
4|--4----------4---------x-x-x-x--4----------4-------------|
5|-----------------------x-x-x-x---------------------------|
6|----2-0-2-0----2-0-2-0-x-x-x-x----2-0-2-0----2-0-2-0-2b--|
						


solo:
1|----------------------------------------------------|
2|-----19----19----19----19----19----19----19----19---|
3|----------------------------------------------------|
4|--16----16----16----16----16----16----16----16------|
5|----------------------------------------------------|
6|----------------------------------------------------|

1|----------------------------------------------------|
2|-----17----17----17----17----17----17----17----17---|
3|----------------------------------------------------|
4|--14----14----14----14----14----14----14----14------|
5|----------------------------------------------------|
6|----------------------------------------------------|
[ Tab from: http://www.guitartabs.cc/tabs/a/audioslave/exploder_tab_ver_2.html ]
1|-----------17----------19----------21----------22---|
2|-----19----------19----------19----------19---------|
3|----------------------------------------------------|
4|--16----16----16----16----16----16----16----16------|
5|----------------------------------------------------|
6|----------------------------------------------------|

1|------------17----17----16--------------------|
2|------17--------------------17-15-14----------|
3|--------------------------------------14------|
4|---14----14----14----14-------------------16--|
5|----------------------------------------------|
6|----------------------------------------------|


1|--22222222222222222222222222222222--|
2|------------------------------------|
3|------------------------------------|
4|------------------------------------|
5|------------------------------------|
6|------------------------------------|


1|--2222222222222222--0000000000000000--|
2|--------------------------------------|
3|--------------------------------------|x2
4|--------------------------------------|
5|--------------------------------------|
6|--------------------------------------|



1|---------------------------------------------------------|
2|---------------------------------------------------------|
3|---------------------------------------------------------|x2
4|--4----------4---------x-x-x-x--4----------4-------------|
5|-----------------------x-x-x-x---------------------------|
6|----2-0-2-0----2-0-2-0-x-x-x-x----2-0-2-0----2-0-2-0-2b--|



1|--12b--12b--12b--12b--12b--12b--|
2|--14b--14b--14b--14b--14b--14b--|
3|--14b--14b--14b--14b--14b--14b--|
4|--------------------------------|
5|--------------------------------|
6|--------------------------------|
Comments