Audioslave - Exploder Chords & Tabs

 

Exploder Chords & Tabs

Audioslave Chords & Tabs

Version: 2 Type: Bass Tab 0 ratings
1 star 2 stars 3 stars 4 stars 5 stars
comments

Exploder Bass Tab

   
artist: audioslave
song: Exploder
tabbedby: thedarkwinbass@yahoo.com

easy song Craig had the basics down.
bass doesn't do the bend.

Standard Tunning

intro; just guitar and drums

verse:
G|---------------------------|
D|--4------------4-----------|
A|---------------------------|
E|-----2-0-2--0----2-0-2--0--|8x

chorus:
G|----------------------------------------------------------|
D|--4------------4----------------4------------4------------|
A|---------------------------xxx----------------------------|
E|-----2-0-2--0----2-0-2--0--xxx-----2-0-2--0----2-0-2--0---|4x

verse:
G|---------------------------|
D|--4------------4-----------|
A|---------------------------|
E|-----2-0-2--0----2-0-2--0--|12x
[ Tab from: http://www.guitartabs.cc/tabs/a/audioslave/exploder_btab_ver_2.html ]
chorus:
G|----------------------------------------------------------|
D|--4------------4----------------4------------4------------|
A|---------------------------xxx----------------------------|
E|-----2-0-2--0----2-0-2--0--xxx-----2-0-2--0----2-0-2--0---|4x

solo: (bass w/ overdrive)
G|-----------------------------|  |-----------------------------|
D|--4------------4-------------|  |--4------------4-------------|
A|-----------------------------|  |-----------------------------|
E|-----2-0-2--0----2-0-2--0-0--|7x|-----2-0-2--0----2-0-2--0-2--|

verse: (clean)
G|-------------------------------------------------------------------|
D|-44444444444444444444444444444444-22222222222222222222222222222222-|
A|-------------------------------------------------------------------|
E|-------------------------------------------------------------------|2x

chorus:
G|----------------------------------------------------------|
D|--4------------4----------------4------------4------------|
A|---------------------------xxx----------------------------|
E|-----2-0-2--0----2-0-2--0--xxx-----2-0-2--0----2-0-2--0---|4x

outro:
G|--------------------|
D|--------------------|
A|--4--2--4--2--2--2--|
E|--2--2--2--2--2--2--|
Comments