Audioslave - Drown Me Slowly Chords & Tabs

 

Drown Me Slowly Chords & Tabs

Audioslave Chords & Tabs

Version: 2 Type: Tab 0 ratings
1 star 2 stars 3 stars 4 stars 5 stars
comments

Drown Me Slowly Tab

Standard Tuning
[ Tab from: http://www.guitartabs.cc/tabs/a/audioslave/drown_me_slowly_tab_ver_2.html ]
e[----0---0---0---0---0---0---0---0---0---0---0---0---0---0---0---0---0----]
b[--5---5---5---5---5---5---5---5---3---3---3---3---3---3---3---3---1---1--]
g[-------------------------------------------------------------------------]
d[-------------------------------------------------------------------------]
a[-------------------------------------------------------------------------]
E[-------------------------------------------------------------------------]

e[-0---0---0---0---0---0---0---0---0---0---0---0---0---0---0---------------]
b[---1---1---1---1---1---1---5---5---5---5---7---7---8---8-----------------]
g[-------------------------------------------------------------------------]
d[-------------------------------------------------------------------------]
a[-------------------------------------------------------------------------]
E[-------------------------------------------------------------------------]

Repeat
Comments