Audioslave - Drown Me Slowly Chords & Tabs

 

Drown Me Slowly Chords & Tabs

Audioslave Chords & Tabs

Version: 2 Type: Bass Tab 0 ratings
1 star 2 stars 3 stars 4 stars 5 stars
comments

Drown Me Slowly Bass Tab

   
Tabbed By : T2H
e-mail: tom_element@btinternet.com

Tuning: Standard - E,A,D,G
[ Tab from: http://www.guitartabs.cc/tabs/a/audioslave/drown_me_slowly_btab_ver_2.html ]
Intro:
G|--------------------------------------------------------------------------|
D|--------------------------------------------------------------------------|
A|-7-5----------------------------------------------------------------------|
E|-------7-5-3-5-0----------------------------------------------------------|
   This part is hard to get in time!
Verse:
G|--------------------------------------------------------------------------|
D|--------------------------------------------------------------------------|
A|-5---------------------------------5-5--------------------------5---------|
E|----0----------------3----5---------------0----------------3--------------|
    This part is also very hard to get in time!
Chorus:
G|--------------------------------------------------------------------------|
D|---------------------------5----------------------------------------------|
A|--------7p5------------7p5------------7p5-------7--5h7-5------------------|
E|--0--0-------0-------0---------0--0-------0----------------3--------------|

Solo:
G|--------------------------------------------------------------------------|
D|----------------------------------------------------5h7-5h7-5h7-----------|
A|--5h7-5-5h7-5-5h7-5-5h7-5-5h7-5-5----5-5h7-5-5h7-5------------------------|
E|-------------------------5------------5-3---------------------------------|

G|-------------------12h14-12-----------------------------------------------|
D|-12h14-12-12h14-12--------------------------------------------------------|
A|--------------------------------------------------------------------------|
E|--------------------------------------------------------------------------|

| /  slide up
| \  slide down
| h  hammer-on
| p  pull-off
| ~  vibrato
| +  harmonic
| x  Mute note
===============================================================================
Comments