Audioslave - Drown Me Slowly Chords & Tabs

 

Drown Me Slowly Chords & Tabs

Audioslave Chords & Tabs

Version: 1 Type: Bass Tab 0 ratings
1 star 2 stars 3 stars 4 stars 5 stars
comments

Drown Me Slowly Bass Tab

standard tuning, great song off the new audioslave album
bassist:tim commerford
Intro
G---------------------------------------------------------|
D---------------------------------------------------------|
A-------7-5---------------5-5-----------------------------|
E-----------7-5-3/5-0---------7-5-3/5-0-------------------|

Verse
G---------------------------------------------------------|
D---------------------------------------------------------|
A----------------------------------------12---------------|
E-----5-7------10-12------5-5-7-------10------------------|

Chorus
G---------------------------------------------------------|
D---------------------------------------------------------|
A---------------------------------------------------------|
E---0-0-12p10--0-0-12p10-3--0-0-12/10--0--12-0-12-3-------|

Solo
G---------------------------------------------------------|
D---------------------------------------------------------|
A-5-7-7-7-7-5-7-7-5-7-7-7-5-7-7-5---5-7-7-5---5-7-7-5---5-|
E---------------------------------7---------7---------7---|
[ Tab from: http://www.guitartabs.cc/tabs/a/audioslave/drown_me_slowly_btab.html ]
G-----------------------------------------------------------------|
D-5-7-7-7-7-5-7-7-5-7-7-7-5-7-7-5---5-7-7-5---5-7-7-5-7-7-7-7-7-7-|
A---------------------------------7---------7---------------------|
E-----------------------------------------------------------------|

G-----------------------------------------5h7p5-----------|
D-------------------------------5/7-7-7-5-----------------|
A-5-7-7-7-7-5-7-7-5-7-7-7-5-7-7---------------------------|
E---------------------------------------------------------|
Theres more afta that, any help wld be appreciated

Bridge
G---------------------------------------------------------|
D---------------------------------------------------------|
A-------7-5---------------5-5-----------------------------|
E-----------7-5-3/5-0---------7-5-3/5-0-------------------|

Outro
G---------------------------------------------------------|
D---------------------------------------------------------|
A---------------------------------------------------------|
E-0-0-0-0-10-0-0-0-0-10-0-0-0-0-10---5-7-5----------------|
thats it for my 1st tab
tom_is_alive@hotmail.com
Comments