Audioslave - Doesnt Remind Me Chords & Tabs

 

Doesnt Remind Me Chords & Tabs

Audioslave Chords & Tabs

Version: 4 Type: Tab

Doesnt Remind Me Tab

   
Doesn’t Remind Me


Artist: Audioslave
Album:  Out Of Exile

Tabbed by Felix Tatman

Standard Tuning

Key

tb///- tremelo pick whilst bending slowly
d- downstroke strum
u- upstroke strum


Verse

e|-----------0---0------------0-----0----0-----0--|
b|-----0-----0---0-----0------2-----0----0-----0--|
g|-----1-----1---1-----1------2--0--1----1-----1--|
d|-----2-----2---2-----2---2--2--0--2----2-----2--|
a|--2-----2---------2------0--------2-------2-----|
e|--0-----0---------0-----------------------0-----|

   (d  u  d  u   u  d  u   d  u  d  u    u  d  u)


Chorus

e|--------------------------------------|
b|--------------------------------------|
g|------------7---7—-7------------------|
d|--2---2--2--7---7--7--7--7--5--2------|
a|--2---2--2--5---5--5--7--7--5--2------|
e|--0---0--0------------5--5--3--0------|

In second verse there is a 2nd guitar with the high open E string being picked if you 
carefully

Bridge

Just strum these chords in rhythm, timings are easy if u have the song

e|--1--------0--------0----0----3----0----|
b|--3--------1--------2----1----3----0----|
g|--2--------0--------2----2----0----1----|
d|--0--------2--------2----2----0----2----|
a|-----------3--------0----0----2----2----|
e|------------------------------3----0----|


Final E chord of bridge is missed out and goes straight to the chorus with the solo over
top.

Solo
-small amount of quiet delay to compensate for the lack of a second guitarist.

Basically you want to pick all of these notes really fast, even the ones in hammers and 
offs for the most part. it’s so fast you needn’t worry about too much accuracy

e|-----------------------------------------------------------------------|
b|-----------------------------------------------------------------------|
g|-14b-14b-14b-14b-14b-12----12-14-14b-14b-14b-14p12---------------12-12-|
d|------------------------14-------------------------14-14p12-14---------|
a|-----------------------------------------------------------------------|
e|-----------------------------------------------------------------------|

e|--------------------------------------------------12b-------------17b--------------|
b|-12b-----------12-------12b-12b----------------12-12b-12-14-15-17-17b--17p15----17-|
g|-12b-----------12-------12b-12b----------12-14-------------------------------16----|
d|------14-12-14----14p12---------14-12-14-------------------------------------------|
a|-----------------------------------------------------------------------------------|
e|-----------------------------------------------------------------------------------|

I think this next part is toggle switched but if you don’t have the ability to do this
it sounds fine just picked clearly
[ Tab from: http://www.guitartabs.cc/tabs/a/audioslave/doesnt_remind_me_tab_ver_4.html ]
e|-15------------------------15---------------15-----------------—12—15-12-17—17-17b-|
b|------15----14----15---15---------15---14-------15---15---15-15--------------------|
g|---12----12----12----12--12---12----12---12--12----12---12-------------------------|
d|-----------------------------------------------------------------------------------|
a|-----------------------------------------------------------------------------------|
e|-----------------------------------------------------------------------------------|

w/wah
e|----15---------------------------15----------------15-----------------------------|
b|----------15----14----15----14---------15----14----------15----14----15-15tb////--|
g|-12----12----12----12----12---12----12----12----12----12----12----12--------------|
d|----------------------------------------------------------------------------------|
a|----------------------------------------------------------------------------------|
e|----------------------------------------------------------------------------------|

e|-----------------------15------------------------------------17b-17p15-|
b|-17-17p15-17-17p15--17----17p15-17--17p15-17-17-15-17--17-17-----------|
g|-----------------------------------------------------------------------|
d|-----------------------------------------------------------------------|
a|-----------------------------------------------------------------------|
e|-----------------------------------------------------------------------|

e|-17b-17b-17-17b-17p15----------------------15--------17p15p14----------|
b|----------------------17p15-17-17p15-17-17----17~-------------17p15p14-|
g|-----------------------------------------------------------------------|
d|-----------------------------------------------------------------------|
a|-----------------------------------------------------------------------|
e|-----------------------------------------------------------------------|

OK here’s the really fast bit. Basically, more delay for a faster sound but make sure
set to the right tempo else it all sounds rubbish.
No pull off’s just pure tremolo picking at a fast-ish pace.

e|-17-15-14----------------------14-15-17-15-14------------15-14-12------------------|
b|----------17-15-14----14-15-17----------------17-15-14------------15-14-12----12-14|
g|-------------------14----------------------------------14------------------14------|
d|-----------------------------------------------------------------------------------|
a|-----------------------------------------------------------------------------------|
e|-----------------------------------------------------------------------------------|

e|----14-15-14-12---------------------------------------------------|
b|-15-------------15-14-12----------------------------16b--17b—20b--|
g|-------------------------12~----15b--16b—-18b-—19b----------------|
d|------------------------------------------------------------------|
a|------------------------------------------------------------------|
e|------------------------------------------------------------------|


Repeat Chorus and verse for outro

That’s pretty much as close as u can get get without a tab book so enjoy the glory my friends.

Ps. Tom Morello is a genius