Audioslave - Doesnt Remind Me Chords & Tabs

 

Doesnt Remind Me Chords & Tabs

Audioslave Chords & Tabs

Version: 2 Type: Bass Tab

Doesnt Remind Me Bass Tab

Tabbed by Tyler Merle
Band: Audioslave
Song: Doesn't Remind Me (Bass)
[ Tab from: http://www.guitartabs.cc/tabs/a/audioslave/doesnt_remind_me_btab_ver_2.html ]
----------------------------------------------------------------------------
  THIS TAB IS IN TRIBUTE OF THE THE BASS: THE BEST INSTRUMENT EVER CREATED
----------------------------------------------------------------------------
NOTE: Tim does use his distortion and clean amps both for this song. (for more
information, vist Audioslaved.com)
VERSE:
G|----------------|--------------|----------------|--------------|
D|----------------|------7-7-5---|----------------|--------------|X
A|------5-7-7-5-7-|----5-------7-|------5-7-7-5-7-|----5-7-------|2
E|5-5h7-----------|5-7-----------|5-5h7-----------|5-7-----5-3-0-|

CHORUS:
G|--------|--------|--------|--------|--------|---------|
D|--------|--------|--------|--------|--------|---------|
A|7-7-7-7-|5-5-5-5-|--------|7-7-7-7-|5-5-5-5-|---------|
E|--------|--------|5-5-3-0~|--------|--------|5-0-3^-0-|

G|--------|--------|--------|--------|--------|---------|
D|--------|--------|--------|--------|--------|---------|
A|7-7-7-7-|5-5-5-5-|--------|7-7-7-7-|5-5-5-5-|---------|
E|--------|--------|5-5-3-0~|--------|--------|5~-------|

During Tom's solo, just play the chorus. Other than the bridge, that's the whole song.
The notes for the bridge are D, C, A , A, G, E if somebody cares to figure out what in
the world Tim does.