Audioslave - Doesnt Remind Me Chords & Tabs

 

Doesnt Remind Me Chords & Tabs

Audioslave Chords & Tabs

Version: 1 Type: Bass Tab 0 ratings
1 star 2 stars 3 stars 4 stars 5 stars
comments

Doesnt Remind Me Bass Tab

   
Album : Out Of Exile
Bassist : Tim Commerford
Tuning : Standard (E,A,D,G)
P : Pull Off

 Verse:
G-----------------------------------|
D-----------------------------------|
A----------5-7-7-5-7----------------|
E---0--3p0-----------0-3p0-3-5-5-3-0|
    This is very hard to get on on time because it starts on the off-beat between 3 and 4.
[ Tab from: http://www.guitartabs.cc/tabs/a/audioslave/doesnt_remind_me_btab.html ]
 Chorus:
G------------------------------------|
D------------------------------------|
A---------5-5-5-5--0-0---------------|
E-0-0-0-0--------------3-0---0-3p0-3-|
  
  Last time:
G-----------------|
D-----------------|
A---------5-5-5-0-|
E-0-0-0-0---------|

Middle 8 (Slow part)

G------------------------------------------------------|
D------------------------------------------------------|
A-5----------5-----5-7-5-4--3--3-3---3--3-----------3--|
E----------5-----5------------3----3-----------3-------|
Comments