Audioslave - Bring Em Back Alive Chords & Tabs

 

Bring Em Back Alive Chords & Tabs

Audioslave Chords & Tabs

Version: 2 Type: Bass Tab 0 ratings
1 star 2 stars 3 stars 4 stars 5 stars
comments

Bring Em Back Alive Bass Tab

   
artist: audioslave
song: Bring Em Back Alive
tabbedby: thedarkwinbass@yahoo.com

4-string w/ E tunned down to B.
from low to high: B A D G

intro:
|------------------------------|
|------------------------------|
|------------------------------|
|--0--12-0-9\10-0--6-0-5--0-3--|4x

4 measure rest

|------------------|  |-------------------|
|------------------|  |-------------\9999-|
|------------------|  |-------------------|
|-5555555555555555-|3x|-555555555555------|

|-------------------------------|\
|-------------------------------| \
|-------------------------------|  \
|--0--12-0-9\10-0--6-0-5--0-3---|   \
                                   repeat 4x
|-------------------------------|   /
|-------------------------------|  /
|-------------------------------| /
|--3--10-0-9\10-3-5-6-0-5--3-5--|/

verse:
|---------------------------|
|---------------------------|
|---------1------0----------|
|--5-3-xx---5-xx---5-xxx-8--|12x

chorus:
|-------------------------------|\
|-------------------------------| \
|-------------------------------|  \
|--0--12-0-9\10-0--6-0-5--0-3---|   \
                                   repeat 4x
|-------------------------------|   /
|-------------------------------|  /
|-------------------------------| /
|--3--10-0-9\10-3-5-6-0-5--3-5--|/

verse:
|---------------------------|
|---------------------------|
|---------1------0----------|
|--5-3-xx---5-xx---5-xxx-8--|10x
[ Tab from: http://www.guitartabs.cc/tabs/a/audioslave/bring_em_back_alive_btab_ver_2.html ]
chorus:
|-------------------------------|\
|-------------------------------| \
|-------------------------------|  \
|--0--12-0-9\10-0--6-0-5--0-3---|   \
                                   repeat 3x
|-------------------------------|   /
|-------------------------------|  /
|-------------------------------| /
|--3--10-0-9\10-3-5-6-0-5--3-5--|/

|-------------------------------|
|-------------------------------| 
|-------------------------------|  
|--0--12-0-9\10-0--6-0-5--0-3---|  
                                   
|-------------------------------|
|-------------------------------|
|-------------------------------|
|--3-5-6-0-5--3-5-6-0-5--3-5----|

solo:
|------------------------------14-14-14-------------|
|---------------------------------------13h14-13h14-|
|---------------------------------------------------|
|-0000000000000000000000000000----------------------|

|------------------------------14-14-14-14-14-14----|
|---------------------------------------------------|
|---------------------------------------------------|
|-0000000000000000000000000000----------------------|

|--------------------------------|
|--------------------------------|
|--2-0-2-----2-0-2-----2-0-2-----|
|---------6---------5---------3--|4x

|--------------------------------|
|--------------------------------|
|--0-2-5-----0-2-5-----0-2-5-----|
|---------6---------5---------3--|4x

rest, then 
|--------------------------|
|--------------------------|
|--------------------------|
|--5-5----5-5----55----55--|

|------------------------------------|
|-----------------------------\9999--|
|------------------------------------|
|-5555555555555555555555555555-------|

repreat chorus before solo and end with
|------------|
|------------|
|------------|
|--3-5--3-5--|

sounds close enough. enjoy it.
comments welcomed.
Comments