Audio Adrenaline - Worldwide One Chords & Tabs

 

Worldwide One Chords & Tabs

Audio Adrenaline Chords & Tabs

Version: 1 Type: Tab 0 ratings
1 star 2 stars 3 stars 4 stars 5 stars
comments

Worldwide One Tab

   
-------------------------------------------------------------------------------
			  WORLDWIDE: ONE - Audio Adrenaline                   
-------------------------------------------------------------------------------

Tabbed by: me
Email: slinkyslide@hotmail.com

Tuning: Standard

Hey everybody. This is my first tab, well, in a very long time and i don't 
know that much about guitar to begin with so don't expect it to be that great. 
hehe.

I only tabbed out the rhythm guitar part, because i'm too lazy to tab out the 
solo, but it sounds pretty easy so figure it out yourself.

Verses & Chorus:
e|---------------------------------|
B|---------------------------------|  
G|-555-3-----------333---5-55-5555-|  
D|-555-3-3-33-3333-333-3-5-55-5555-|  
A|-333-1-3-33-3333-111-3-3-33-3333-|  
E|-------1-11-1111-----1-----------|

For most of the song, it sounds like tyler's playing power chords, but 
sometimes they sound like, um, full chords. or real chords. whatever you call 
them:
[ Tab from: http://www.guitartabs.cc/tabs/a/audio_adrenaline/worldwide_one_tab.html ]
e|-333-1-1-11-1111-111-1-3-33-3333-|
B|-555-3-1-11-1111-333-1-5-55-5555-|
G|-555-3-2-22-2222-333-2-5-55-5555-|
D|-555-3-3-33-3333-333-3-5-55-5555-|
A|-333-1-3-33-3333-111-3-3-33-3333-|
e|-333-1-1-11-1111-111-1-3-33-3333-|

the post chorus (while the other guitar has a solo), the first and third time, 
goes like this:
e|-------------------------------------------------|
B|-------------------------------------------------|
G|-------------------------------------------------|
D|-66-88-1010101010101010--66-88-1010101010101010--|
A|-66-88-1010101010101010--66-88-1010101010101010--|
E|-44-66-8-8-8-8-8-8-8-8---44-66-8-8-8-8-8-8-8-8---|

the second time it's
e|-------------------------------------------------------------|
B|-------------------------------------------------------------|
G|-------55555555-------55555555----33-55555555----33-55555555-|
D|-66-33-55555555-66-33-55555555-66-33-55555555-66-33-55555555-|
A|-66-33-33333333-66-33-33333333-66-11-33333333-66-11-33333333-|
E|-44-11----------44-11----------44-------------44-------------|

and that's it! :) i think.
Comments