Audio Adrenaline - Will Not Fade Chords & Tabs

 

Will Not Fade Chords & Tabs

Audio Adrenaline Chords & Tabs

Version: 1 Type: Tab 0 ratings
1 star 2 stars 3 stars 4 stars 5 stars
comments

Will Not Fade Tab

-----------------------------------------------------------------------------
			     Will not Fade-Audio Adrenaline
 ----------------------------------------------------------------------------
Tabbed by: Thorn
Email: thornmusic@hotmail.com

Tuning: Standard
[ Tab from: http://www.guitartabs.cc/tabs/a/audio_adrenaline/will_not_fade_tab.html ]
e|-------------------------------------------------------------------|
B|-------------------------------------------------------------------|
G|-------------------------------------------------------------------|
D|-------------------------------------------------------------------|
A|-------7-5---------7-5----------7-5----------7-5-------------------|
E|-0-0-0-------0-0-0-------0-0-0-------0-0-0-------------------------|

e|-------------------------------------------------------------------|
B|-------------------------------------------------------------------|
G|-------------------------------------------------------------------|
D|-------------------------------------------------------------------|
A|-------7-5---------7-5----------7-5-----7-5-7-5--------------------|
E|-0-0-0-------0-0-0-------0-0-0-------------------------------------| (4x)
Comments