Audio Adrenaline - Were A Band Chords & Tabs

 

Were A Band Chords & Tabs

Audio Adrenaline Chords & Tabs

Version: 1 Type: Tab 0 ratings
1 star 2 stars 3 stars 4 stars 5 stars
comments

Were A Band Tab

   
All I have is the intro but its right. it sounds weird on the cd 
because they use a weird distortion. if you listen to it, you can 
hear the notes though.

|--3/0-0-x-x-x-x-0-0-x-x-x-x----------0-0-|
|------------------------------3-3-3------|
|-----------------------------------------|
|-----------------------------------------|
|-----------------------------------------|
|-----------------------------------------|
[ Tab from: http://www.guitartabs.cc/tabs/a/audio_adrenaline/were_a_band_tab.html ]
   E  E           E  E           D   D    D  E  E
|--------x-x-x-x--------x-x-x-x--10--10--10-------|
|--------x-x-x-x--------x-x-x-x--10--10--10-------|
|--1--1--x-x-x-x--1--1--x-x-x-x--11--11--11--1--1-|
|--2--2--x-x-x-x--2--2--x-x-x-x--12--12--12--2--2-|
|--2--2--x-x-x-x--2--2--x-x-x-x--12--12--12--2--2-|
|--------x-x-x-x--------x-x-x-x--10--10--10-------|

   E  E           E  E            D  D   D
|--------x-x-x-x--------x-x-x-x--10--10--10--10/12-|
|--------x-x-x-x--------x-x-x-x--10--10--10--10/12-|
|--1--1--x-x-x-x--1--1--x-x-x-x--11--11--11--------|
|--2--2--x-x-x-x--2--2--x-x-x-x--12--12--12--------|
|--2--2--x-x-x-x--2--2--x-x-x-x--12--12--12--------|
|--------x-x-x-x--------x-x-x-x--10--10--10--------|

Thats it. pretty simple if you listen to it. peace.




Comments