Audio Adrenaline - Were A Band Chords & Tabs

 

Were A Band Chords & Tabs

Audio Adrenaline Chords & Tabs

Version: 2 Type: Bass Tab 0 ratings
1 star 2 stars 3 stars 4 stars 5 stars
comments

Were A Band Bass Tab

We're A Band(bassline)
By Audio Adrenaline
copyright: Forefront Communications
Submitted by Brett Hall
hallba02@holmes.ipfw.indiana.edu


This tab was given to me by a friend. I made a couple of corrections. This
is as close as I can get to the bassline. If you find any problems,
let me know at the above Email address and I will re-submit this tab with
corrections.


Chorus:
[ Tab from: http://www.guitartabs.cc/tabs/a/audio_adrenaline/were_a_band_btab_ver_2.html ]
G----------------------------------------------------------------
D----------------------------------------------------------------
A----------7---------7------5--5--7-------------7----------------
E---0--0------0--0---------------------0--0----------------------


Verse:

G----------------------------------------------------------------
D-------------------------5--------------------------------------
A---5--7--7----7--7--7------7---5--7--7----7---7--7---5---0------
E-------------------------------------------------------------5--


This part comes in later in the song. (Listen for it!!):

G-------------11--7--9--------------7-----------8----------------
D------7/9-----------------9-------------------------------------
A---7---------------------------5----------6---------------------
E----------------------------------------------------------------

Comments