Audio Adrenaline - Underdog Chords & Tabs

 

Underdog Chords & Tabs

Audio Adrenaline Chords & Tabs

Version: 1 Type: Tab 0 ratings
1 star 2 stars 3 stars 4 stars 5 stars
comments

Underdog Tab

hey guys the other tab ( no offense ), but i didnt like it at all especially with all
the trouble you have to go through making it into the drop b tuning so i took this song
to my guitar teacher and he showed me how to do it in standard tuning ( it sounds so much
better this is exactly how to play it )
key--- ^=bend the note
       x2 means play 2 times x4 means 4 times x8 means 8 times
       x \
       x  \these x's mean to mute the notes
       x  /
        p = pick off
        h = hammer on

intro
e|----------------------------------------|
b|----------------------------------------|
g|-------4--------------------------------|
d|-5-----4-x2-----------------------------|
a|-5-x2--2-----2--------3^----------------|
e|-3-----------0-x2-----------------------|


verse 1 is just a base until it gets to the guitar struming in the clean tone but sorry 
havent tabed that part out yet but right after the guitar in the clean tone comes this 
in destortion

[ Tab from: http://www.guitartabs.cc/tabs/a/audio_adrenaline/underdog_tab.html ]
e|-----------------------------------------------------------|
b|-----------------------------------------------------------|
g|--------------4----------5----5------------4---------------|
d|--5x----5-----4-x2-------5-x2-5-x2---5-----4-x2------------|
a|--5x-x4-5-x2--2----2-----3----3------5-x2--2----2------3^--|
e|--3x----3----------0-x2--------------3----------0-x2-------|


chorus
e|--------------------------------------------------------------------------|
b|--------------------------------------------------------------------------|
g|--------4---------5----------4----------5---------------------------------|
d|--5-----4-x8------5-x8--5----4-x8-------5-x1---555-444-222----------------|
a|--5-x8--2----2----3-----5-x8-2----2-----3------------------5--2h3p2h3-----|
e|--3----------0-x8-------3---------0-x8------------------------------------|

outro
-- is the same as the chorus except at the very end you repeat the small solo part about 
times or so -- you should be able to figure it out its easy


its pretty much that same pattern through the whole song i liked this song a lot and it 
really easy so i hope that you enjoy if you have any questions or comments you can reach 
at Acdc9790@aol.com
Comments