Audio Adrenaline - Superfriend Chords & Tabs

 

Superfriend Chords & Tabs

Audio Adrenaline Chords & Tabs

Version: 1 Type: Bass Tab 0 ratings
1 star 2 stars 3 stars 4 stars 5 stars
comments

Superfriend Bass Tab

Superfriend
Audio Adrenaline
from Some Kind of Zombie 
tabbed by Jared Gardner   hansolo@integrityonline10.com

kewl song, enjoy :-)

G|-----------------------------------
D|-----------------------------------  intro & verse
A|-----------------------------------
E|--0-0-3-3-0--0-0--0-0-0--0-0-3-3-0-

G|----------------------
D|----------------------  "does it offend you..." prechorus
A|----------------------
E|--0--3--5----0--3--5--
[ Tab from: http://www.guitartabs.cc/tabs/a/audio_adrenaline/superfriend_btab.html ]
G|-------------------------------------
D|-------------------------------------  "I want to..." chorus
A|------5------------5------------5----
E|--3-------0----3------0----3------0--

G|-------------------------------------------
D|-------------------------------------------  guitar solo riff 1
A|----------0-3-------------------0-3--------
E|--0-0--3-------0-0--3--0-0--3-------0-0--3-

G|-------------------------------------
D|-------------------------------------
A|--------------------0-0-0-0--3-3-3-3-
E|--0-0-0-0--3-3-3-3-------------------

G|--------------
D|-------------- last 3 notes
A|--------------
E|--3---5---0---

Comments