Audio Adrenaline - Some Kind Of Zombie Chords & Tabs

 

Some Kind Of Zombie Chords & Tabs

Audio Adrenaline Chords & Tabs

Version: 1 Type: Bass Tab 0 ratings
1 star 2 stars 3 stars 4 stars 5 stars
comments

Some Kind Of Zombie Bass Tab

Song: Some kind of zombie
CD: Some kind of zombie
Group: Audio Adrenaline
Record Co: Forefront
Transcribe by: Cameron Brewer
e-mail: jonahbass@usa.net

Any mistakes I did please e-mail and tell me what they are.


Intro:

G--------------------------------------------------------
D--------------------------------------------------------
A--------------------------------------------------------  
E-5-5\17-17--5-5\17-17--1-1\13-13--1-1\13-13---

G------------------------------------------------------------
D------------------------------------------------------------
A------------------------------------------------------------
E-5-5\17-17--5-5\17-17--1-1\13-13--1-1\13-13--5---     

G------------------------------------------------
D------------------------------------------------
A-3-3---------------3-3-3-3---------------0---
E-------3-3--1--3-------------3-3--1--3-------


Bridge:

G-----------------------------------
D-----------------------------------
A-----------------------------------
E-3-0-5--3-0-5--3-0-5--3-0-5---


Pre Chorus:

G--------------------------------------------------------
D--------------------------------------------------------
A--------------------------------------------------------
E-5-5\17-17--5-5\17-17--1-1\13-13--1-1\13-13---

G--------------------------------------------------------
D--------------------------------------------------------
A--------------------------------------------------------
E-5-5\17-17--5-5\17-17--1-1\13-13--1-1\13-13---

Chorus:

G---------------------------------------------------------------------------------------------
D---------------------------------------------------------------------------------------------
A---------------------------------------------------------------------------------------------
E-3-4-5-x-x-x-x-x-x-x-x--3-4-5-x-x-x-x-x-x-x-x--3-4-5-x-x-x-x-x-x-x-x--1-0-5---


Bridge:
[ Tab from: http://www.guitartabs.cc/tabs/a/audio_adrenaline/some_kind_of_zombie_btab.html ]
G--------------------------------------------------
D--------------------------------------------------
A-3-3-------------0-------------------------------
E-------3-3-1-3--------1-0-5--1-0-5--1-0-5---


Chorus:

G--------------------------------------------------------
D--------------------------------------------------------
A--------------------------------------------------------
E-5-5\17-17--5-5\17-17--1-1\13-13--1-1\13-13---

G--------------------------------------------------------
D--------------------------------------------------------
A--------------------------------------------------------
E-5-5\17-17--5-5\17-17--1-1\13-13--1-1\13-13---


(Play during the guitar solo)

G---------------------------------------------------------------------
D---------------------------------------------------------------------
A---------------------------------------------------------------------
E-5-5-5--5-5-5--5-5-5--5-5-5-5--5-5-5--5-5-5--5-5-5--5-5---


Chorus:

G--------------------------------------------------------
D--------------------------------------------------------
A--------------------------------------------------------
E-5-5\17-17--5-5\17-17--1-1\13-13--1-1\13-13---

G--------------------------------------------------------
D--------------------------------------------------------
A--------------------------------------------------------
E-5-5\17-17--5-5\17-17--1-1\13-13--1-1\13-13---


Chrous:

G-------------------------------------------------------------------------------------
D-------------------------------------------------------------------------------------
A-------------------------------------------------------------------------------------
E-3-4-5-x-x-x-x-x-x-x-x--3-4-5-x-xx-x-x-x-x-x--3-4-5-x-x-x-x-x-x-x-x---

G---------------------------------------------------------------------
D---------------------------------------------------------------------
A---------------------------------------------------------------------
E-3-4-5-x-x-x-x-x-x-x-x--3-4-5-x-x-x-x-x-x-x-x--3-4-5-x-x-xx-x-x-x-x--

G-------------------------------------
D-------------------------------------
A-------------------------------------
E-3-4-5-x-x-x-x-x-x-x-x-1-0-5---

(play the A note ontell it fades away)



Comments