Audio Adrenaline - Never Gonna Be As Big As Jesus Chords & Tabs

 

Never Gonna Be As Big As Jesus Chords & Tabs

Audio Adrenaline Chords & Tabs

Version: 2 Type: Bass Tab 0 ratings
1 star 2 stars 3 stars 4 stars 5 stars
comments

Never Gonna Be As Big As Jesus Bass Tab

"Never Gonna Be As Big As Jesus"  by Audio Adrenaline
 Heard on their  release "BloOm"
(c) 1996 Up In the Mix Music
tabbed by jrsmith@netdoor.com

  This song is tuned in drop D                                        
G-----------------------------------------------------------------------
D---------------12--12--12--10------------------12--12--12--10----
A-----------12------------------12----------12------------------12------
D---12--12--------------------------12--12------------------------------
                                                                        

                                                                        
G-----------------------------------------------------------------------
D---------------12--12--12--10------------------12--12--12--10----------
A-----------12------------------12----------12------------------12------
D---12--12--------------------------12--12------------------------------
                                                                        

                                                                        
G-----------------------------------------------------------------------
D---------------12--12--12--10------------------12--12--12--10----------
A-----------12------------------12----------12------------------12------
D---12--12--------------------------12--12------------------------------
                                                                        

                                                                        
G-----------------------------------------------------------------------
D---------------12--12--12--10------------------12--12--12--10----------
A-----------12------------------12----------12------------------12------
D---12--12--------------------------12--12------------------------------
                                                                        

                                                                        
G-----------------------------------------------------------------------
D-----------------------------------------------------------------------
A---10--10------10--10--10--10--10--10------10--10--10----------12------
D-----------12--------------------------12--------------12--12----------
                                                                        

                                                                        
G-----------------------------------------------------------------------
D---12--12--12--10------------------12--12--12--10----------------------
A-------------------12----------12------------------12----------12------
D-----------------------12--12--------------------------12--12----------
                                                                        

                                                                        
G-----------------------------------------------------------------------
D---12--12--12--10------------------12--12--12--10----------------------
A-------------------12----------12------------------12----------12------
D-----------------------12--12--------------------------12--12----------
                                                                        

                                                                        
G-----------------------------------------------------------------------
D---12--12--12--10------------------12--12--12--10----------------------
A-------------------12----------12------------------12--10--10----------
D-----------------------12--12----------------------------------12------
                                                                        

                                                                        
G-----------------------------------------------------------------------
D-----------------------------------------------9--12-------------------
A---10--10--10--10--10--10--10------10--10--10---------10--10-----------
D-------------------------------12-----------------------------12-------
                                                                        

                                                                        
G-----------------------------------------------------------------------
D-----------------------------------------------------------------------
A---10--10--10--10--10--7--7-----7--7--7--7--9--10--10------10--10------
D-----------------------------9-------------------------12--------------
                                                                        

                                                                        
G-----------------------------------------------------------------------
D-----------------------12--12--12--10------------------12--12--12------
A---10--10----------12------------------12----------12------------------
D-----------12--12--------------------------12--12----------------------
                                                                        

                                                                        
G-----------------------------------------------------------------------
D---10------------------------------------------------------------------
A-------12--7--7-----7--7--7--7--9--10--10------10--10--10--10----------
D-----------------9-------------------------12------------------5--7----
                                                                        

                                                                        
G-----------------------------------------------------------------------
D-----------------------------------------------------------------------
A-----------------------------------------------------------------------
D---9--9--11--12--0--0--0--0--0--0--0--0--0--0--5--0--0--0--0--0--0-----
                                                                        


G-----------------------------------------------------------------------
D-----------------------------------------------------------------------
A-----------------------------------------------------------------------
D---0--0--0--0--0/5--5--5--5--5--5--5--5--5--5--5--5--5--5--5--5--5-----
                                                                        

                                                                        
G-----------------------------------------------------------------------
D----------------------------------12--12--12--10-----------------------
A------------------------------12------------------12----------12-------
D---5--5--7--9--9--11--12--12--------------------------12--12-----------
                                                                        

                                                                        
G-----------------------------------------------------------------------
D---12--12--12--10------------------12--12--12--10----------------------
A-------------------12----------12------------------12--10--10----------
D-----------------------12--12----------------------------------12------
                                                                        

                                                                        
G-----------------------------------------------------------------------
D------------------------------------------------------12--12--12-------
A---10--10--10--10--10--10--9----------------------12-------------------
D------------------------------14--14--14--12--12-----------------------
                                                                        

                                                                        
G-----------------------------------------------------------------------
D---10------------------12--12--12--10------------------12--12--12------
A-------12----------12------------------12----------12------------------
D-----------12--12--------------------------12--12----------------------
                                                                        

                                                                        
G-----------------------------------------------------------------------
D---10------------------12--12--12--10------------------12--12--12------
A-------12----------12------------------12----------12------------------
D-----------12--12--------------------------12--12----------------------
                                                                        

                                                                        
G-----------------------------------------------------------------------
D---10------------------------------------------------------------------
A-------12--10--10------10--10--10--10--10--10--10------10--10--10------
D-------------------12------------------------------12------------------
                                                                        

                                                                        
G-----------------------------------------------------------------------
D---9--12---------------------------------------------------------------
A----------10--10------10--10--10--10--10--10--10--7--7-----7--7--7-----
D------------------12------------------------------------9--------------
                                                                        
[ Tab from: http://www.guitartabs.cc/tabs/a/audio_adrenaline/never_gonna_be_as_big_as_jesus_btab_ver_2.html ]
                                                                        
G-----------------------------------------------------------------------
D-------------------------------------------------12--12--12--10--------
A---7--9--10--10------10--10--10--10----------12------------------12----
D-----------------12------------------12--12----------------------------
                                                                        

                                                                        
G-----------------------------------------------------------------------
D---------------12--12--12--10------------------------------------------
A-----------12------------------12--7--7-----7--7--7--7--9--10--10------
D---12--12--------------------------------9-----------------------------
                                                                        

                                                                        
G-----------------------------------------------------------------------
D-----------------------------------------------------------------------
A-------10--10--10------------------------------------------------------
D---12--------------5--7--9--9--11--12--0--0--0--0--0--0--0--0--0--0----
                                                                        

                                                                        
G-----------------------------------------------------------------------
D-----------------------------------------------------------------------
A-----------------------------------------------------------------------
D---0--0--0--0--5--0--0--0--0--0--0--0--0--0--0--0--0--0/5--5--5--5-----
                                                                        

                                                                        
G-----------------------------------------------------------------------
D-----------------------------------------------------------------------
A-----------------------------------------------------------------------
D---5--5--5--5--5--5--5--5--5--5--5--5--5--5--5--5--5--5--5--7--9--9----
                                                                        

                                                                        
G-----------------------------------------------------------------------
D-------------------12--12--12--10------------------12--12--12--10------
A---------------12------------------12----------12----------------------
D---11--12--12--------------------------12--12--------------------------
                                                                        

                                                                        
G-----------------------------------------------------------------------
D-------------------12--12--12--10--------------------------------------
A---12----------12------------------12--10--9---------------------------
D-------12--12---------------------------------14--14--14--12\0---------
                                                                        

                                                                        
G-----------------------------------------------------------------------
D------------------12--12--12--10------------------12--12--12--10-------
A--------------12------------------12----------12-----------------------
D------12--12--------------------------12--12---------------------------
                                                                        

                                                                        
G-----------------------------------------------------------------------
D-------------------12--12--12--10------------------12--12--12--10------
A---12----------12------------------12----------12----------------------
D-------12--12--------------------------12--12--------------------------
                                                                        

                                                                        
G-----------------------------------------------------------------------
D---------------------------------------------------------------9-------
A---12--10--10------10--10--10--10--10--10--10------10--10--10----------
D---------------12------------------------------12----------------------
                                                                        

                                                                        
G-----------------------------------------------------------------------
D---12--------------12--12--12--10------------------12--12--12--10------
A---------------12------------------12----------12----------------------
D-------12--12--------------------------12--12--------------------------
                                                                        

                                                                        
G-----------------------------------------------------------------------
D-------------------12--12--12--12--12--12--10--------------------------
A---12------10--------------------------------------10------7--7--------
D-------12------12------------------------------12------12--------9-----
                                                                        

                                                                        
G-----------------------------------------------------------------------
D--------------------------------------------------------------12-------
A---7--7--7--7--9--10--10------10--10--10--10--10----------12-----------
D--------------------------12----------------------12--12---------------
                                                                        

                                                                        
G-----------------------------------------------------------------------
D---12--12--10------------------12--12--12--10--------------------------
A---------------12----------12------------------12--7--7-----7--7--7----
D-------------------12--12--------------------------------9-------------
                                                                        

                                                                        
G-----------------------------------------------------------------------
D-----------------------------------------------------------------------
A---7--9--10--10------10--10--10--10------------------------------------
D-----------------12------------------5--7--9--9--11--12----------------
                                                                        

                                                                        
G-----------------------------------------------------------------------
D-----------------------------------------------------------------------
A-----------------------------------------------------------------12----
D------------------0--0/5--5--5--5--5--5--5--7--9--9--11--12--12--------
                                                                        

                                                                        
G-----------------------------------------------------------------------
D---12--12--12--10------------------12--12--12--10----------------------
A-------------------12----------12------------------12----------12------
D-----------------------12--12--------------------------12--12----------
                                                                        

                                                                        
G-----------------------------------------------------------------------
D---12--12--12--10--------------------------------------------12--12----
A-------------------12--10--9-----------------------------12------------
D------------------------------14--14--14--12-----12--12----------------
                                                                        

                                                                        
G-----------------------------------------------------------------------
D---12--10------------------12--12--12--10------------------12--12------
A-----------12----------12------------------12----------12--------------
D---------------12--12--------------------------12--12------------------
                                                                        

                                                                        
G-----------------------------------------------------------------------
D---12--10------------------12--12--12--10------------------------------
A-----------12----------12------------------12--10--10------10--10------
D---------------12--12----------------------------------12--------------
                                                                        

                                                                        
G-----------------------------------------------------------------------
D-----------------------------------------------------------12--12------
A---10--10--10--10--10------10--10--10--10--10----------12--------------
D-----------------------12----------------------12--12------------------
                                                                        

                Repeat until it fades out                               
G-----------------------------------------------------------------------
D---12--10--------------------------------------------------------------
A-----------12----------------------------------------------------------
D-----------------------------------------------------------------------
                                                         
Comments