Audio Adrenaline - Memoir Chords & Tabs

 

Memoir Chords & Tabs

Audio Adrenaline Chords & Tabs

Version: 2 Type: Bass Tab 0 ratings
1 star 2 stars 3 stars 4 stars 5 stars
comments

Memoir Bass Tab

Memoir
Audio Adrenaline
from "Bloom"
Forefront Records
tabbed by JamesLL3@aol.com

this may not be exactly right, but it's the way I play it and I think it sounds pretty good.
Listen for order, its a pretty easy song. 


   intro and verse           chorus-- listen for subtle changes        
G--------------------------|--------------------------------------------
D--------------------------|--------------------------------------------
A---5--3--5/3--------------|--5--5--5--5--5--5--5--5--5-----------------
D--------------0--3--4--5--|-----------------------------5--5--5--5-----
                                                                        
[ Tab from: http://www.guitartabs.cc/tabs/a/audio_adrenaline/memoir_btab_ver_2.html ]
                                                                        
G------------------------2--5--7--5--2-----------------------------|----
D---------------------------------------5--5--5--5--5--5--5--5--5--|----
A------------------5--5--------------------------------------------|----
D---5--5--5--5--5--------------------------------------------------|----
                                                                        

    pre-bridge                     bridge-- the cool part               
G-------------------------------|---------------------------------------
D---------3---------------------|---------------------------------------
A------------------3/4\3--2--0--|---------------------------------------
D---0--0-----0--0---------------|--0--0--3--0--3--4--5--0--0--0--3------
                                                                        

                                                                        
G---------------------------------------------------------------|-------
D---------------------------------------------------------------|-------
A---------------------------------------5--5--5--5--3--2--3--3--|-------
D---0--3--4--5--0--0--0--3--0--3--4--5--------------------------|-------
                                                                        
this is one of the coolest songs ever.  Have fun.
Comments