Attiley - She Walked Away Chords & Tabs

 

She Walked Away Chords & Tabs

Attiley Chords & Tabs

Version: 1 Type: Tab 0 ratings
1 star 2 stars 3 stars 4 stars 5 stars
comments

She Walked Away Tab

   
#---------------------------------PLEASE NOTE----------------------------------#
#This file is the author's own work and represents their interpretation of the #
#song. You may only use this file for private study, scholarship, or research. #
#------------------------------------------------------------------------------#
#------------Created with Taborama Tab Creator-----www.taborama.com------------#
#------------------------------------------------------------------------------#

Title: She Walked Away
Artist: aTTiley
Album: TBA

Instrument: 6 String Guitar

Tabbed by: Joe Hill (iomegaman72@msn.com)

Tuning: Standard (E A D G B E)


[ Tab from: http://www.guitartabs.cc/tabs/a/attiley/she_walked_away_tab.html ]
Intro of the Intro:
E|-3-----3-----3-----------------------------------------------------||
B|-3-----3-----3-----------------------------------------------------||
G|-0-----0-----0-----x4----------------------------------------------||
D|-0-x16-2-x16-0-x32-------------------------------------------------||
A|-2-----2-----0-----------------------------------------------------||
E|-3-----0-----------------------------------------------------------||
Bridge of the Intro:
E|-3-----3-----3-----3-----3-----3-----------------------------------||
B|-3-----3-----3-----3-----3-----3-----------------------------------||
G|-0-----0-----0-----0-----0-----0-----x2----------------------------||
D|-0-x16-0-x16-2-x16-0-x16-0-x16-0-x16-------------------------------||
A|-2-----0-----2-----2-----0-----3-----------------------------------||
E|-3-----3-----0-----------------------------------------------------||
  The whole intro is played clean, after you get done with the bridge
  you hit the distortion and the the intro of the intro twice.
Verse:
E|-------------------------------------------------------------------||
B|-------------------------------------------------------------------||
G|------7----5----------7----9---------------------------------------||
D|-5----7-x8-5-x16-5----7-x8-9-x16--x2-------------------------------||
A|-5-x8-5----3-----5-x8-5----7---------------------------------------||
E|-3---------------3-------------------------------------------------||
  Palm muted.
Chorus:
E|-------------------------------------------------------------------||
B|-------------------------------------------------------------------||
G|------7----9----5--------------------------------------------------||
D|-5----7-x8-9-x8-5-x8--x4-------------------------------------------||
A|-5-x8-5----7----3--------------------------------------------------||
E|-3-----------------------------------------------------------------||
Outro Pt. 1: (Switch back to clean)
E|-3-----3-----3-----------------------------------------------------||
B|-3-----3-----3-----------------------------------------------------||
G|-0-----0-----0------x1---------------------------------------------||
D|-0-x16-2-x16-0-x32-------------------------------------------------||
A|-2-----2-----0-----------------------------------------------------||
E|-3-----0-----------------------------------------------------------||
  Outro Pt. 2 is the bridge of the intro repeated.
End the song on:
E|-3--------------||
B|-3--------------||
G|-0--------------||
D|-0--------------||
A|-2--------------||
E|-3--------------||
Order:

Intro of Intro
Bridge of Intro
Intro of Intro x2 distorted
Chorus
Verse
Chorus
Verse
Chorus
Outro Pt. 1
Outro Pt. 2
Comments